Millencolin - Happiness For Dogs Chords & Tabs

 

Happiness For Dogs Chords & Tabs

Millencolin Chords & Tabs

Version: 1 Type: Tab 0 ratings
1 star 2 stars 3 stars 4 stars 5 stars
comments

Happiness For Dogs Tab

   
-------------------------------------------------------------------------------
		      Happiness for dogs - Millencolin
-------------------------------------------------------------------------------

By:Joakim Sverker (Specma@hotmail.com)

This is nowhere near the whole song and it's probably not correct either but
it's something...

Intro:
e|---------------------------------------------------------------------------
B|---------------------------------------------------------------------------
G|---------------------------------------------------------------------------
D|-5/7-7-7-7-7-7-7-7-7-7-7-7/9-9-9/10-10-10-10-10-10-10-10-10-10-10-10-10\9-9
A|-5/7-7-7-7-7-7-7-7-7-7-7-7/9-9-9/10-10-10-10-10-10-10-10-10-10-10-10-10\9-9
E|-3/5-5-5-5-5-5-5-5-5-5-5-5/7-7-7/8---8--8--8--8--8--8--8--8--8--8--8--8\7-7

  ---------|
  ---------|
  ---------|    Play this three times with palm mute on the first.
  -9\5-5-5-|
  -9\5-5-5-|
  -7\3-3-3-|

The third time the second guitar plays something like this:
e|----------------------------------------------------------------------------
B|----------------------------------------------------------------------------
G|----------------------------------------------------------------------------
D|8/10-10-10-10-10-10-10-10-10-10-10-10-10/12-12-12/13-13-13-13-13-13-13-13-13
A|7/-9--9--9--9--9--9--9--9--9--9--9--9--9/11-11-11/12-12-12-12-12-12-12-12-12
E|5/-7--7--7--7--7--7--7--7--7--7--7--7--7/-9--9--9/10-10-10-10-10-10-10-10-10
 [pm--------------------------------------------------------------------------]
e|----------------------------|
B|----------------------------|
G|----------------------------|
D|-13-13-13-13/12-12-12/8-8-8-|
A|-12-12-12-12/11-11-11/7-7-7-|
E|-10-10-10-10/-9--9--9/5-5-5-|
 [pm--------------------------]

Verse:
e|--------------------------------------------------------|
B|--------------------------------------------------------|
G|--------------------------------------------------------|
D|-7-7-7--7-7-7--7-7-7--7-7-7--3-3-3--3-3-3--3-3-3--3-3-3-|
A|-7-7-7--7-7-7--7-7-7--7-7-7--3-3-3--3-3-3--3-3-3--3-3-3-|
E|-5-5-5--5-5-5--5-5-5--5-5-5--1-1-1--1-1-1--1-1-1--1-1-1-|
[ Tab from: http://www.guitartabs.cc/tabs/m/millencolin/happiness_for_dogs_tab.html ]
The third time the second guitar plays this:
e|--------------------------------------------------------------------|
B|--------------------------------------------------------------------|
G|--------------------------------------------------------------------|
D|-10-10-10--10-10-10--10-10-10--10-10-10--6-6-6--6-6-6--6-6-6--6-6-6-|
A|--9--9--9---9--9--9---9--9--9---9--9--9--5-5-5--5-5-5--5-5-5--5-5-5-|
E|--7--7--7---7--7--7---7--7--7---7--7--7--3-3-3--3-3-3--3-3-3--3-3-3-|
 [pm------------------------------------------------------------------]
 
Pre-Chorus:
e|-----------------|
B|-----------------|
G|-----------------|
D|-5-5-5-5-5-5-5-5-|
A|-5-5-5-5-5-5-5-5-|
E|-3-3-3-3-3-3-3-3-|

Second guitar Pre-Chorus:
e|-----------------|
B|-----------------|
G|-----------------|
D|-8-8-8-8-8-8-8-8-|
A|-7-7-7-7-7-7-7-7-|
E|-3-3-3-3-3-3-3-3-|
 [pm---------------]

Chorus (both guitars)
e|-----------------------------------------------------------------
B|-----------------------------------------------------------------
G|-5-5-5-5-5-5-5-5-5-5-5-5-5-5-5-5--------------------------------- 
D|-5-5-5-5-5-5-5-5-5-5-5-5-5-5-5-5-5-5-5-5-5-5-5-5-5-5-5-5-5-5-5-5-
A|-3-3-3-3-3-3-3-3-3-3-3-3-3-3-3-3-5-5-5-5-5-5-5-5-5-5-5-5-5-5-5-5-
E|---------------------------------3-3-3-3-3-3-3-3-3-3-3-3-3-3-3-3-

  -----------------------------------------------------------------|
  -----------------------------------------------------------------|
  -----------------------------------------------------------------|
  -7-7-7-7-7-7-7-7-7-7-7-7-7-7-7-7-3-3-3-3-3-3-3-3-5-5-5-5-5-5-5-5-|
  -7-7-7-7-7-7-7-7-7-7-7-7-7-7-7-7-3-3-3-3-3-3-3-3-5-5-5-5-5-5-5-5-|
  -5-5-5-5-5-5-5-5-5-5-5-5-5-5-5-5-1-1-1-1-1-1-1-1-3-3-3-3-3-3-3-3-|
 [pm---------------------------------------------------------------]

Bridge(both guitars):
e|-----------------------------------------------------------------|
B|-----------------------------------------------------------------|
G|-5-5-5-5-5-5-5-5-------------------------------------------------|
D|-5-5-5-5-5-5-5-5-5-5-5-5-5-5-5-5-7-7-7-7-7-7-7-7-5-5-5-5-5-5-5-5-|
A|-3-3-3-3-3-3-3-3-5-5-5-5-5-5-5-5-7-7-7-7-7-7-7-7-5-5-5-5-5-5-5-5-|
E|-----------------3-3-3-3-3-3-3-3-5-5-5-5-5-5-5-5-3-3-3-3-3-3-3-3-|
 [pm---------------------------------------------------------------]

Song Order:
Intro		6x
Verse		4x
Pre-Chorus	1x
Chorus		2x
Intro		2x
Verse		4x
Pre-Chorus	1x
Chorus		4x
Verse		2x
Bridge		4x
Chorus		4x

You're very welcome to comment this tab in any way,good or bad.
Comments