Millencolin - Friends Til The End Chords & Tabs

 

Friends Til The End Chords & Tabs

Millencolin Chords & Tabs

Version: 2 Type: Tab 0 ratings
1 star 2 stars 3 stars 4 stars 5 stars
comments

Friends Til The End Tab

   
-----------------------------------------------------------------------------
			     Friends 'Til the End - Millencolin
-----------------------------------------------------------------------------
Tabbed by:NOfxmike	
Email:someone028@excite.com

Tuning:standard
intro is played without muting strings(guitar 2)
guitar 1
e|-----------------------------------------|
B|-----------------------------------------|
G|-----------------------------------------|
D|---9------------------11-12--------------|
A|-----------------------------------------|
E|-----------------------------------------|
guitar 2+guitar 3
e|----------------------------------------|
B|----------------------------------------|
G|----------------------------------------|
D|--9--9-9-9--9--9-9-9--9--9-9-9--9--9-9-9|
A|--9--9-9-9--9--9-9-9--9--9-9-9--9--9-9-9|
E|--7--7-7-7--7--7-7-7--7--7-7-7--7--7-7-7|
guitar 1
e|-----------------------------------------|
B|-----------------------------------------|
G|-----------------------------------------|
D|---------------------12--11--------------|
A|--10---------------------------12--------|
E|-----------------------------------------|repeat
guitar 2+guitar 3
e|----------------------------------------|
B|----------------------------------------|
G|----------------------------------------|
D|--5--5-5-5--5--5-5-5--7--7-7-7--7--7-7-7|
A|--5--5-5-5--5--5-5-5--7--7-7-7--7--7-7-7|
E|--3--3-3-3--3--3-3-3--5--5-5-5--5--5-5-5|
verse 1:
guitar 2+guitar 3
    First words you say in tears
e|----------------------------------------|
B|----------------------------------------|
G|----------------------------------------|
D|--9--9-9-9--9--9-9-9--9--9-9-9--9--9-9-9|
A|--9--9-9-9--9--9-9-9--9--9-9-9--9--9-9-9|
E|--7--7-7-7--7--7-7-7--7--7-7-7--7--7-7-7|
    PM |----|    |----|    |----|    |----| 
 
   complaining how i'm never near
e|----------------------------------------|
B|----------------------------------------|
G|----------------------------------------|
D|--5--5-5-5--5--5-5-5--7--7-7-7--7--7-7-7|
A|--5--5-5-5--5--5-5-5--7--7-7-7--7--7-7-7|
E|--3--3-3-3--3--3-3-3--5--5-5-5--5--5-5-5|

 I know i'm lost sometimes
e|----------------------------------------|
B|----------------------------------------|
G|----------------------------------------|
D|--9--9-9-9--9--9-9-9--9--9-9-9--9--9-9-9|
A|--9--9-9-9--9--9-9-9--9--9-9-9--9--9-9-9|
E|--7--7-7-7--7--7-7-7--7--7-7-7--7--7-7-7|
    PM |----|    |----|    |----|    |----|
   cause i'm grounded in my mind
e|----------------------------------------|
B|----------------------------------------|
G|----------------------------------------|
D|--5--5-5-5--5--5-5-5--7--7-7-7--7--7-7-7|
A|--5--5-5-5--5--5-5-5--7--7-7-7--7--7-7-7|
E|--3--3-3-3--3--3-3-3--5--5-5-5--5--5-5-5|
    PM |----|    |----|    |----|    |----|

It's like this                It's like   
e|----------------------------------------|
B|----------------------------------------|
G|----------------------------------------|
D|--9--9-9-9--9--9-9-9--9--9-9-9--9--9-9-9|
A|--9--9-9-9--9--9-9-9--9--9-9-9--9--9-9-9|
E|--7--7-7-7--7--7-7-7--7--7-7-7--7--7-7-7|
    PM |----|    |----|    |----|    |----|
     this     all     the     time
e|----------------------------------------|
B|----------------------------------------|
G|----------------------------------------|
D|--5--5-5-5--5--5-5-5--7--7-7-7--7--7-7-7|
A|--5--5-5-5--5--5-5-5--7--7-7-7--7--7-7-7|
E|--3--3-3-3--3--3-3-3--5--5-5-5--5--5-5-5|
    PM |----|    |----|    |----|    |----|

first i say that you're ok 
e|----------------------------------------|
B|----------------------------------------|
G|----------------------------------------|
D|--9--9-9-9--9--9-9-9--9--9-9-9--9--9-9-9|
A|--9--9-9-9--9--9-9-9--9--9-9-9--9--9-9-9|
E|--7--7-7-7--7--7-7-7--7--7-7-7--7--7-7-7|
    PM |----|    |----|    |----|    |----|
[ Tab from: http://www.guitartabs.cc/tabs/m/millencolin/friends_til_the_end_tab_ver_2.html ]
than i go my way
e|----------------------------------------|
B|----------------------------------------|
G|----------------------------------------|
D|--5--5-5-5--5--5-5-5--7--7-7-7--7--7-7-7|
A|--5--5-5-5--5--5-5-5--7--7-7-7--7--7-7-7|
E|--3--3-3-3--3--3-3-3--5--5-5-5--5--5-5-5|
    PM |----|    |----|    |----|    |----|
lead fill 1( guitar 1)
e|----3---------3-----------7---------7-----|
B|------3----------3----------7---------7---|
G|---------4----------4---------7---------7-|
D|-/5---------------------/9----------------|
A|------------------------------------------|
E|------------------------------------------|
Bridge:
w/ lead fill 1
And you're desperate    And you're desperate when you're down
guitar 2
e|-------------------------|
B|-------------------------|
G|-------------------------|
D|--5-------------------9--|
A|--5-------------------9--|
E|--3-------------------7--|
bridge #2:
  Here i stand         take my hand 
guitar 2
e|-------------------------|
B|-------------------------|
G|-------------------------|
D|--5-------------------9--|
A|--5-------------------9--|
E|--3-------------------7--|
end lead fill 1
and i'll try to understand you right
e|----------------------------------------|
B|----------------------------------------|
G|----------------------------------------|
D|--5--5-5-5--5--5-5-5--5--5-5-5--5--5-5-5|
A|--5--5-5-5--5--5-5-5--5--5-5-5--5--5-5-5|
E|--3--3-3-3--3--3-3-3--3--3-3-3--3--3-3-3|
Refrain:
                        Understand you right        
e|------------------------------------------|
B|------------------------------------------|
G|------------------------------------------|
D|--9--9-9-9--9--9-9-9--5--5-5-5--5--5-5-5--|
A|--9--9-9-9--9--9-9-9--5--5-5-5--5--5-5-5--|
E|--7--7-7-7--7--7-7-7--3--3-3-3--3--3-3-3--|
                     in the best way i can
e|----------------------------------------|
B|----------------------------------------|
G|--7--7-7-7--7--7-7-7--------------------|
D|--7--7-7-7--7--7-7-7--7--7-7-7--7--7-7-7|
A|--5--5-5-5--5--5-5-5--7--7-7-7--7--7-7-7|
E|----------------------5--5-5-5--5--5-5-5|

'cause after all i am your friend
e|-----|
B|-----|
G|--9--|
D|--9--|
A|--7--|
E|-----|pickslide

guitar 1
e|-----------------------------------------|
B|-----------------------------------------|
G|-----------------------------------------|
D|---9------------------11-12--------------|
A|-----------------------------------------|
E|-----------------------------------------|
guitar 2+guitar 3
e|----------------------------------------|
B|----------------------------------------|
G|----------------------------------------|
D|--9--9-9-9--9--9-9-9--9--9-9-9--9--9-9-9|
A|--9--9-9-9--9--9-9-9--9--9-9-9--9--9-9-9|
E|--7--7-7-7--7--7-7-7--7--7-7-7--7--7-7-7|
guitar 1
e|-----------------------------------------|
B|-----------------------------------------|
G|-----------------------------------------|
D|---------------------12--11--------------|
A|--10---------------------------12--------|
E|-----------------------------------------|repeat
guitar 2+guitar 3
e|----------------------------------------|
B|----------------------------------------|
G|----------------------------------------|
D|--5--5-5-5--5--5-5-5--7--7-7-7--7--7-7-7|
A|--5--5-5-5--5--5-5-5--7--7-7-7--7--7-7-7|
E|--3--3-3-3--3--3-3-3--5--5-5-5--5--5-5-5|repeat
    PM |----|    |----|    |----|    |----|
additional lyrics:
Last words you scream to me, you don't expect too much of me
Cause i could give you anything if i just could be myself
It's like that all the time, first i say that you're ok then i go my way again
bridge:
w/ lead fill 1

You're so desperate (repeat)
but still mine

Bridge #2:

here I stand take my hand
and i'll try to understand you right 

refrain:

understand you right 
in the best way that i can
cause after all i am your friend

interlude:
 guitar 2
e|-------------------------------------------------------------------------|
B|-------------------------------------------------------------------------|
G|----------------------------------------------------------------9--------|
D|--9--9-9-9-11-12--9-9-12-9-12-9-12--9---9--9--9---12-11---7-7-------7--7-|
A|--9--9-9-9--------9-9----9----9-----10--10-10-10--14-12---7-7-------7--7-|
E|-------------------------------------------------------------------------|
  PM   |----|  PM  |--|   |-|  |-|      PM|-------|      PM|---|     |-|

But now the girl is working
guitar 1
e|-----------------------------------------|
B|-----------------------------------------|
G|-----------------------------------------|
D|---9------------------11-12--------------|
A|-----------------------------------------|
E|-----------------------------------------|
guitar 2+guitar 3
e|----------------------------------------|
B|----------------------------------------|
G|----------------------------------------|
D|--9--9-9-9--9--9-9-9--9--9-9-9--9--9-9-9|
A|--9--9-9-9--9--9-9-9--9--9-9-9--9--9-9-9|
E|--7--7-7-7--7--7-7-7--7--7-7-7--7--7-7-7|
       now the girl feels fine 
guitar 1
e|-----------------------------------------|
B|-----------------------------------------|
G|-----------------------------------------|
D|---------------------12--11--------------|
A|--10---------------------------12--------|
E|-----------------------------------------|repeat
guitar 2+guitar 3
e|----------------------------------------|
B|----------------------------------------|
G|----------------------------------------|
D|--5--5-5-5--5--5-5-5--7--7-7-7--7--7-7-7|
A|--5--5-5-5--5--5-5-5--7--7-7-7--7--7-7-7|
E|--3--3-3-3--3--3-3-3--5--5-5-5--5--5-5-5|repeat
and i'm the one who feels Down
guitar 1
e|-----------------------------------------|
B|-----------------------------------------|
G|-----------------------------------------|
D|---9------------------11-12--------------|
A|-----------------------------------------|
E|-----------------------------------------|
guitar 2+guitar 3
e|----------------------------------------|
B|----------------------------------------|
G|----------------------------------------|
D|--9--9-9-9--9--9-9-9--9--9-9-9--9--9-9-9|
A|--9--9-9-9--9--9-9-9--9--9-9-9--9--9-9-9|
E|--7--7-7-7--7--7-7-7--7--7-7-7--7--7-7-7|
       but if she'll be working  until the end of time 
guitar 1
e|-----------------------------------------|
B|-----------------------------------------|
G|-----------------------------------------|
D|---------------------12--11-----9--------|
A|--10-------------------------------------|
E|-----------------------------------------|repeat
guitar 2+guitar 3
e|----------------------------------------|
B|----------------------------------------|
G|----------------------------------------|
D|--5--5-5-5--5--5-5-5--7--7-7-7--7--7-7-7|
A|--5--5-5-5--5--5-5-5--7--7-7-7--7--7-7-7|
E|--3--3-3-3--3--3-3-3--5--5-5-5--5--5-5-5|repeat

I hope she'll understand  
understand me then
in the best way that she can
Cause after all i am her friend till the end
slides(guitar1+guitar2+guitar3)
| >  accent
| /  slide up
| \  slide down
| h  hammer-on
| p  pull-off
| ~  vibrato
| +  harmonic
| x  Mute note
Comments