Millencolin - Friends Til The End Chords & Tabs

 

Friends Til The End Chords & Tabs

Millencolin Chords & Tabs

Version: 1 Type: Tab 0 ratings
1 star 2 stars 3 stars 4 stars 5 stars
comments

Friends Til The End Tab

Band: Millencolin
Song: Friends 'Til the End
Album: Life on a Plate
tabbed by left_zero@yahoo.com

INTRO:
Main Guitar (2x):                                  Lead Guitar (2x):
E|------------------------------------------------||--------------------------|
B|------------------------------------------------||--------------------------|
G|------------------------------------------------||--------------------------|
D|-9--9-9-9-9--9--9-9-9-9--5--5-5-5-5--7--7-7-7-7-||-9---9-11-12-----12-11----|
A|-9--9-9-9-9--9--9-9-9-9--5--5-5-5-5--7--7-7-7-7-||---9----------10-------12-|
E|-7--7-7-7-7--7--7-7-7-7--3--3-3-3-3--5--5-5-5-5-||--------------------------|

VERSE:
Both guitars (4x):
E|------------------------------------------------|
B|------------------------------------------------|
G|------------------------------------------------|
D|-9--9-9-9-9--9--9-9-9-9--5--5-5-5-5--7--7-7-7-7-|
A|-9--9-9-9-9--9--9-9-9-9--5--5-5-5-5--7--7-7-7-7-|
E|-7--7-7-7-7--7--7-7-7-7--3--3-3-3-3--5--5-5-5-5-|
[ Tab from: http://www.guitartabs.cc/tabs/m/millencolin/friends_til_the_end_tab.html ]
PRE-CHORUS:
Main Guitar plays nothing and Lead Guitar plays this:
E|-----------------------------------------------------------------
B|-------------------------12--------12----------------------------
G|----12-------12-------------11--------11--------12-------12------
D|-------12-9-----12-9--9--------12--------12--------12-9-----12-9-
A|-10------------------------------------------10------------------
E|-----------------------------------------------------------------

both guitars:
E-------------------------|
B-------------------------|
G--9--9-9-9-9--9--9-9-9-9-|
D--9--9-9-9-9--9--9-9-9-9-|
A--7--7-7-7-7--7--7-7-7-7-|
E-------------------------|

CHORUS:
Both guitars:
E|---------------------------------------------------------------------------|
B|---------------------------------------------------------------------------|
G|-----------------------7--7-7-7-7------------------------------------------|
D|-9--9-9-9-9-5--5-5-5-5-7--7-7-7-7-7--7-7-7-7-9--9-9-9-9-5--5-5-5-5--9:-----|
A|-9--9-9-9-9-5--5-5-5-5-5--5-5-5-5-7--7-7-7-7-9--9-9-9-9-5--5-5-5-5--9:-----|
E|-7--7-7-7-7-3--3-3-3-3------------5--5-5-5-5-7--7-7-7-7-3--3-3-3-3--7:-----|

After that, repeat all the song again

INTERLUDE (2x):
E|------------------------------------------|
B|------------------------------------------|
G|------------------------------------------|
D|--9--x-9-11-12-12-x-12---9--9--------14-x-|
A|--9--9-x--x--x--x-x--x--10--x-12-12---x-x-|
E|------------------------------12-12-------|

Then, play the INTRO Riff 4x (with some variation)

and play the CHORUS Riff 2x
Comments