Millencolin - Fox Chords & Tabs

 

Fox Chords & Tabs

Millencolin Chords & Tabs

Version: 2 Type: Tab 0 ratings
1 star 2 stars 3 stars 4 stars 5 stars
comments

Fox Tab

Millencolin - FOX.
 Tabbed by ANDY PELL   MillencolinWonderboy@hotmail.com.
  
e|--------------------------------
B|--------------------------------
G|--77----77----77----------------
D|--77-77-77-77-77-77-55-44-------
A|--55-77-55-77-55-77-55-44-------
E|-----55----55----55-33-22-------

e|--------------------------------
B|--------------------------------
G|--7-----------------------------
D|--7-----------------------------
A|--5--------------------------55-
E|--------------------------------
[ Tab from: http://www.guitartabs.cc/tabs/m/millencolin/fox_tab_ver_2.html ]
e|--------------------------------
B|--------------------------------
G|--7-7-7-7-7-7-7-7---------------
D|--7-7-7-7-7-7-7-7---------------
A|--5-5-5-5-5-5-5-5---------------
E|--------------------------------

e|--------------------------------
B|--------------------------------
G|--777777-999999-555555-999999---
D|--777777-999999-555555-999999---
A|--555555-777777-333333-777777---
E|--------------------------------

e|--------------------------------
B|--------------------------------
G|--99999999-11-11-999-7---------- eleven not 1 & 1
D|--------------------------------
A|--------------------------------
E|--------------------------------

 
:: Ultimate Guitar Archive :: 
http://www.ultimate-guitar.com 



Comments