Millencolin - Fox Chords & Tabs

 

Fox Chords & Tabs

Millencolin Chords & Tabs

Version: 1 Type: Tab 0 ratings
1 star 2 stars 3 stars 4 stars 5 stars
comments

Fox Tab

#----------------------------------PLEASE NOTE--------------------------------#
#This file is the author's own work and represents their interpretation of the#
#song. You may only use this file for private study, scholarship, or research.#
#-----------------------------------------------------------------------------#
#-- File created with Instab - http://www.pconline.com/~smcarey/instab.html --#
#-----------------------------------------------------------------------------#

Author/Artist: Millencolin
Title: fox
Album: Pennibridge Pionners
Transcribed by: salvatore spanò
Email: salspan17@virgilio.it

here's the riff to play this song with solo

------------------------------------------------------------------------------
------------------------------------------------------------------------------
--7-7-------7--7---------4--4-------------------------------------------------
--7-7--5-5--7--7---5--5--4--4--7--7---5-5-5---x2------------------------------
--5-5--5-5--5--5---5--5--2--2--7--7---5-5-5-----------------------------------
-------3-3---------3--3--------5--5---3-3-3-----------------------------------
  now riff 2 for verse                                                        

------------------------------------------------------------------------------
------------------------------------------------------------------------------
------7------7----------------------------------------------------------------
------7------7----------------------------------------------------------------
------5----4-5----4/5-4h5h4h5h4h4---------------------------------------------
------------------------------------------------------------------------------
   then riff 3 for chorus                                                     
[ Tab from: http://www.guitartabs.cc/tabs/m/millencolin/fox_tab.html ]
------------------------------------------------------------------------------
------------------------------------------------------------------------------
--7-7-------7--7--------4--4--------------------------------------------------
--7-7--5-5--7--7--5--5--4--4--7--7--5-5-5--x2---------------------------------
--5-5--5-5--5--5--5--5--2--2--7--7--5-5-5-------------------------------------
-------3-3--------3--3--------5--5--3-3-3-------------------------------------
  then verse and after play this new riff for the chorus                      

------------------------------------------------------------------------------
------------------------------------------------------------------------------
--7-7-------7--7-------4-4---------------7-7-7-7-7-7-7-7----------------------
--7-7--5-5--7--7--5-5--4-4--7--7--5-5-5--7-7-7-7-7-7-7-7---x2-----------------
--5-5--5-5--5--5--5-5--2-2--7--7--5-5-5--5-5-5-5-5-5-5-5----------------------
-------3-3--------3-3-------5--5--3-3-3---------------------------------------
 go to this bridge :                                                          

------------------------------------------------------------------------------
------------------------------------------------------------------------------
----------------------------------7-7-7-7-7-7-7-7-9-9-9-9-9-9-9-9-------------
--9-9-9-9-9-9-9-9-7-7-7-7-7-7-7-7-----------------------------------x4--------
----------------------------------5-5-5-5-5-5-5-5-7-7-7-7-7-7-7-7-------------
--7-7-7-7-7-7-7-7-5-5-5-5-5-5-5-5---------------------------------------------
  solo with a lot of wah-wah                                                  

------------------------------------------------------------------------------
------------------------------------------------------------------------------
--9b-9b-9b-9b-9b-9b-9b-9b-1111-9-99--9--7-------------------------------------
------------------------------------------5----x2-----------------------------
------------------------------------------------------------------------------
------------------------------------------------------------------------------
  then riff1 for two times then hold B5-A5-G5 chords 'till the end            

Comments