Millencolin - Fox Chords & Tabs

 

Fox Chords & Tabs

Millencolin Chords & Tabs

Version: 3 Type: Bass Tab 0 ratings
1 star 2 stars 3 stars 4 stars 5 stars
comments

Fox Bass Tab

   
Millencolin - Fox

        ~ = let ring

Part 1
G-------------------------------------------------|
D-------------------------------------------------|
A-5-555-------5-555-------------------------------|
E-------3-333-------3-333-7-777-5-555-3-333-3-333-|
[ Tab from: http://www.guitartabs.cc/tabs/m/millencolin/fox_btab_ver_3.html ]
Part 2
G-----------------|
D-----------------|
A-5-5-5-5-5-3-2-0-|
E-----------------|
Part 3
G-------------------------------------------------|
D-------------------------------------------------|
A-2-222-2-222-0-000-0-000-5-555-5-555-------------|
E-------------------------------------3-333-3-333-|

Part 4
G-----------------------------------0~--------|
D---------------------------------------------|
A-2-222-2-222-0-000-0-000-5~------------------|
E---------------------------------------------|

Part 5
G-----------------------------|
D-----------------------------|
A--------------------------5~-|
E-7-777-5-555-3-333-3-333-----|

Order

Part 1	x10
Part 2	x1
Part 3  x3
Part 4	x1
Part 1  x4
Part 5	x1
Comments