Millencolin - Flippin Beans Chords & Tabs

 

Flippin Beans Chords & Tabs

Millencolin Chords & Tabs

Version: 1 Type: Bass Tab 0 ratings
1 star 2 stars 3 stars 4 stars 5 stars
comments

Flippin Beans Bass Tab

---------------------------------------------------------------- 

                Flippin' Beans/ Millencolin 

---------------------------------------------------------------- 
Album: "The Melancholy Collection" and Burning Heart compilation
         "Teaching You No Fear" 
Tabbed By: Pat Edwards
                                                
                                                        >  Means strum
        Intro/Verse 8x
G|--------------------------------------------------------------
D|---------6-7---------------------4-5--------------------------
A|---7-7---------------6-7---5-5---------------7-6--------------
E|---------------7-7---------------------5-5--------------------

        Chorus 4x
G|--------------------------------------------------------------
D|--------------------------------------------------------------
A|---7>--------5>-----------------------------------------------
E|--------3>--------5>------------------------------------------

        Verse 6x
        
        Chorus 4x

        During guitar solo play verse 4 times
[ Tab from: http://www.guitartabs.cc/tabs/m/millencolin/flippin_beans_btab.html ]
        Bridge ( same as chorus ) 6x

        Outro ( same as chorus , just spunk it up a bit ) 4x

        End on G|---
                 D|---
                 A|---
                 E|-5- And slide down a couple frets


{{{{{{{{{{{{{{{{{{{{{{{{{{{{{{{{{{{{{
VERSION 2
}}}}}}}}}}}}}}}}}}}}}}}}}}}}}}}}}}}}}

Artist:Millencolin
Song:flippen beans
Album:Skauck or mellancholly collection 
Intro/main bit 
g-------------------------------------------------------------------------------------------------
d-------67----------------45-------75----------------------------------------------------------
a-77------------23---55------------------------------------------------------------------------
e-----------33-----------------55---------------------------------------------------------------

Play this for the chorus

g------------------------------------------------------
d------------------------------------------------------
a-777777----------5555555-----------------------
e----------333333------------55555--------------

Play the above bit real fast in the fast bit...but faster (duh)

Tabbed by ReeCe



Comments