Millencolin - Fingers Crossed Chords & Tabs

 

Fingers Crossed Chords & Tabs

Millencolin Chords & Tabs

Version: 2 Type: Tab 0 ratings
1 star 2 stars 3 stars 4 stars 5 stars
comments

Fingers Crossed Tab

FINGERS CROSSED - Millencolin

Tabbed by Nick Greer (GaleriansX@aol.com)

Intro/Chorus
Guitar 1
e------------------------------x2--------------------------------|-----------------
B----------------------------------------------------------------|-----------------
G-11--11-12-14-12-11--11-12-14-12-11-11-12-11-9-7-7----9--11-9-7-|-11----12--11----
D----------------------------------------------------------------|-----------------
A--9---9-10-12-10--9---9-10-12-10--9--9-10--9-7-5-5----7---9-7-5-|--9----10---9----
E----------------------------------------------------------------|-----------------
Guitar 2 play all notes continuously
e----------------------------x2----------------------------------|-----------------
B----------------------------------------------------------------|-----------------
G--7-------------------------------------------------------------|--------7777-----
D--7---------------7---------------9--------------5-------7------|--------7777-----
A--5---------------7---------------9--------------5-------7------|--------5555-----
E------------------5---------------7--------------3-------5------|-----------------

Verse
Guitar 1
e--------------------x2--------------------|---------
B------------------------------------------|---------
G--77-777-XX-------------------------------|--7------
D--77-777-XX-77-777-XX-9999-5555-9999-5555-|--7------    
A--55-555-XX-77-777-XX-9999-5555-9999-5555-|--5------     
E------------55-555-XX-7777-3333-7777-3333-|---------
Guitar 2   ()=Second Time Only
e--------------------x2--------------------|---------
B------------------------------------------|---------
G--7---------7-(754)-----------------------|--7------
D------------------------------------------|---------
A--5---------5-----------------------------|--5------     Play the Intro/Chorus
E------------------------------------------|---------     and then Verse

Bridge 1
e---------------------------------------------------------------
B---------------------------------------------------------------
G--7--6--7--9--12---11----7--14--16-7--9--12---11----7------/11-
D---------------------------------------------------------------
A--5--4--5--7--10----9----5--12--14-5--7--10----9----5-------/9-
E---------------------------------------------------------------
[ Tab from: http://www.guitartabs.cc/tabs/m/millencolin/fingers_crossed_tab_ver_2.html ]
Bridge 2
Guitar 1
e---------------------------------------------------------------------------------------------------------------------------------------
B---------------------------------------------------------------------------------------------------------------------------------------
G--7777XX7777XX7777-6666XX6666XX6666-4444XX4444XX4444-4444XX4444XX-6666--7777XX7777XX7777-6666XX6666XX6666-4444XX4444XX4444-------------
D--7777XX7777XX7777-6666XX6666XX6666-4444XX4444XX4444-4444XX4444XX-6666--7777XX7777XX7777-6666XX6666XX6666-4444XX4444XX4444-5-----7-----
A--5555XX5555XX5555-4444XX4444XX4444-2222XX2222XX2222-2222XX2222XX-4444--5555XX5555XX5555-4444XX4444XX4444-2222XX2222XX2222-5-----7-----
E---------------------------------------------------------------------------------------------------------------------------3-----5-----
Guitar 2
e---------------------------------------------------------------------------------------------------------------------------------------
B---------------------------------------------------------------------------------------------------------------------------------------
G------------------------------------------------------------------------11--12-14-12-1111------------------11--12-11-9-7----7-----9----
D---------------------------------------------------------------------------------------------------------------------------------------
A-------------------------------------------------------------------------9--10-12-10--9-9-------------------9--10--9-7-5----5-----7----
E---------------------------------------------------------------------------------------------------------------------------------------
                                                                                                                  The play the Intro/Chorus
Outro
Guitar 1                                                          End On
e------------------------------x2--------------------------------|-------------
B----------------------------------------------------------------|-------------
G-11--11-12-14-12-11--11-12-14-12-11-11-12-11-9-7-7----9--11-9-7-|--7----------
D----------------------------------------------------------------|-------------
A--9---9-10-12-10--9---9-10-12-10--9--9-10--9-7-5-5----7---9-7-5-|--5----------
E----------------------------------------------------------------|-------------
Guitar 2   play all notes continuously
e------------------------------x2--------------------------------|-------------
B----------------------------------------------------------------|-------------
G--7---------------6---------------4-----------------------------|--7----------
D--7---------------6---------------4--------------5-------7------|--7----------
A--5---------------4---------------2--------------5-------7------|--5----------
E-------------------------------------------------3-------5------|-------------

Cool Octaves
Comments