Millencolin - Duckpond Chords & Tabs

 

Duckpond Chords & Tabs

Millencolin Chords & Tabs

Version: 1 Type: Tab 0 ratings
1 star 2 stars 3 stars 4 stars 5 stars
comments

Duckpond Tab

DUCKPOND - Millencolin

Tabbed by: (Mike) big_cookie5@hotmail.com

Intro: x4
E|----------------------------------------------
B|----------------------------------------------
G|--7-7-7-11-9-7-5-5-3-5-7----------------------
D|--7-7-9-11-9-7-5-5-3-5-7----------------------
A|--5-5-7-9--7-5-3-3-1-3-5----------------------
E|----------------------------------------------

Verse: Palm muted
E|----------------------------------------------
B|----------------------------------------------
G|--7-7-7-7-------------------------------------
D|--7-7-7-7--5-5-5-5--9-9-9-9--5-5-5-5----------
A|--5-5-5-5--5-5-5-5--9-9-9-9--5-5-5-5----------
E|-----------3-3-3-3--7-7-7-7--3-3-3-3----------
[ Tab from: http://www.guitartabs.cc/tabs/m/millencolin/duckpond_tab.html ]
Chorus: Listen to the song for the rhythm
E|----------------------------------------------
B|----------------------------------------------
G|----------------------------------------------
D|--5----9--11--5-4--7-6------------------------
A|--5----9--11--5-4--7-6------------------------
E|--3----7--9---3-2--5-4------------------------

E|----------------------------------------------
B|----------------------------------------------
G|--4--6----12-11--14-12-11---------------------
D|--x--x----x--x---x--x--x----------------------
A|--2--4----10-9---12-10-9----------------------
E|----------------------------------------------

Bridge:
E|----------------------------------------------
B|----------------------------------------------
G|----9-9----------9-9---------9-9---------9999-
D|----9-9--xxx5-5--9-9-xxx5-5--9-9-xxx5-5--9999-x2
A|----7-7--xxx5-5--7-7-xxx5-5--7-7-xxx5-5--7777-
E|---------xxx3-3------xxx3-3------xxx3-3-------

Intro again.

That's all folks, if you have any corrections or complaints
then just email me at big_cookie5@hotmail.com.
Comments