Millencolin - Duck Pond Chords & Tabs

 

Duck Pond Chords & Tabs

Millencolin Chords & Tabs

Version: 2 Type: Tab 0 ratings
1 star 2 stars 3 stars 4 stars 5 stars
comments

Duck Pond Tab

   
DUCKPOND - Millencolin

Standard Tuning (E A D G B E)
Played on 2 guitars both with heavy distortion
If you have a Zoom 505II or 606II effects pedal,
the settings I use on this distortion that sounds pretty good are:

Patch Level: 29 -------Comp/Limit/Wah: off
Dist: n5 --------------Gain: 30
EQ/Phase: off ---------Contour: --
ZNR/AMP: 9 ------------Mod: off
DLY/REV: r4 -----------Time: 4

I also use this distortion for playing other bands such as
New Found Glory, Good Charlotte, MXPX, Rancid...basically
everything punk this distortion is good with....anyway here's the tab

Intro:
Guitar 1 -
e|----------------------------------------|
B|----------------------------------------|
G|-4-4-4-4-4-2-2-2-2-2--------------------|
D|-4-4-4-4-4-2-2-2-2-2-5-5-5-5-5--5-5-5-5-|
A|-2-2-2-2-2-0-0-0-0-0-5-5-5-5-5--5-5-5-5-|
E|---------------------3-3-3-3-3--3-3-3-3-|

Guitar 2-
e|----------------------------------------|
B|----------------------------------------|
G|-7-7-7-9-11-9-7-6-4-----4-6-7-7--7-7-7--|
D|-x-x-x-x-x--x-x-x-x-7-7-x-x-x-x--x-x-x--|
A|-5-5-5-7-9--7-5-4-2-x-x-2-4-5-5--5-5-5--|
E|--------------------5-5-----------------|

Verse:
Guitar 1 -
e|---------------------------------------------------------|
B|---------------------------------------------------------|
G|---------------------------------------------------------|
D|-7-7-7-7-7-7-7---------------4-4-4-4-4-4-4---------------|
A|-5-5-5-5-5-5-5-2-2-2-2-2-2-2-2-2-2-2-2-2-2-5-5-5-5-5-5-5-|
E|---------------0-0-0-0-0-0-0---------------3-3-3-3-3-3-3-|
  p.m.....................................................

e|---------------------------------------------------------------|
B|---------------------------------------------------------------|
G|---------------------------------------------------------------|
D|-7-7-7-7-7-7-7---------------4-4-4-4-4-4-4-5-5-5-5-5-5-5-5-5-5-|
A|-5-5-5-5-5-5-5-2-2-2-2-2-2-2-2-2-2-2-2-2-2-5-5-5-5-5-5-5-5-5-5-|
E|---------------0-0-0-0-0-0-0---------------3-3-3-3-3-3-3-3-3-3-|
  p.m....................................... ^both guitars
            					    play this chord
Guitar 2 is silent suring the verse except on the 355 chord....
[ Tab from: http://www.guitartabs.cc/tabs/m/millencolin/duck_pond_tab_ver_2.html ]
Chorus:
Guitar 1-
e|-----------------------------------------------------------------------------------|
B|-----------------------------------------------------------------------------------|
G|-4-4-4-4-4-4-4-2-2-2-2-2-2-2-------------------------------------------------------|
D|-4-4-4-4-4-4-4-2-2-2-2-2-2-2-5-5-5-5-5-5-5-5-5-5-5-5-5-5-5-5-5-5-5-5-5-5-5-5-5-5-5-|
A|-2-2-2-2-2-2-2-0-0-0-0-0-0-0-5-5-5-5-5-5-5-5-5-5-5-5-5-5-5-5-5-5-5-5-5-5-5-5-5-5-5-|
E|-----------------------------3-3-3-3-3-3-3-3-3-3-3-3-3-3-3-3-3-3-3-3-3-3-3-3-3-3-3-|

Guitar 2-
e|-----------------------------------------------------------------------------------|
B|-----------------------------------------------------------------------------------|
G|-4-4-4-4-4-4-4-6-6-6-6-6-6-6-12-12-12-12-12-11-11-11-11-14-14-14-14-14-12-12-11-11-|
D|-x-x-x-x-x-x-x-x-x-x-x-x-x-x-x--x--x--x--x--x--x--x--x--x--x--x--x--x--x--x--x--x--|
A|-2-2-2-2-2-2-2-4-4-4-4-4-4-4-10-10-10-10-10-9--9--9--9--12-12-12-12-12-10-10-9--9--|
E|-----------------------------------------------------------------------------------|

Breakdown-
Guitar 1-
e|-------------------------|
B|-------------------------|
G|-------------------------|
D|-2-2-x-x-x-5--5--5--5--5-|
A|-2-2-x-x-x-5--5--5--5--5-|
E|-0-0-x-x-x-3--3--3--3--3-|

Guitar 2-
e|--------------------------|
B|--------------------------|
G|-9-9----------------------|
D|-x-x-x-x-x-12-12-12-12-12-|
A|-7-7-x-x-x-x--x--x--x--x--|
E|-----x-x-x-10-10-10-10-10-|

End of Breakdown:
Both Guitars-
e|-------------------|
B|-------------------|
G|-7-7-7-7-7-7-7-7---|
D|-7-7-7-7-7-7-7-7-7-|
A|-5-5-5-5-5-5-5-5-7-|
E|-----------------5-|

End Song on:
e|----|
B|----|
G|-7~-|
D|-7~-|
A|-5~-|
E|----|

The Order goes:
Intro (x4)
Verse (x2)
Chorus (x2)
Verse (x2)
Breakdown (x2) (with end of breakdown both times)
Intro (x4)
End

Lyrics:

Well everybody's leaving
from this town and from me
They've got the burning flame
they sure achieve their aim,
You know that's tough for me to see
Oh how I wish that I could
do the same as them and go,
Just pack my bags and goodbye
Get out fast or fade away real slow

Cause' what you see is what you get right here,
When change is nowhere near
What you see is what you get from me
In this duckpond leave me here

Pretend my life is perfect
Like the faces on TV
Yeah, that's the only way 
to face another day
try to deny the misery
But those are the ways of looney's
and like a clown yeah do I act
No matter where I could be
or would like to go 
I'm stuck and that's a fact

Cause' what you see is what you get right here,
When change is nowhere near
What you see is what you get from me
In this duckpond leave me here

I'm too weak I'm down on my knees
too feeble for something new
Feels like there's nothing I can do
Keep on laughing 'bout me
keep on doing your own
But someday I will be that one

Be that one,
yeah someday I will be that one
Comments