Millencolin - Duck Pond Chords & Tabs

 

Duck Pond Chords & Tabs

Millencolin Chords & Tabs

Version: 1 Type: Tab 0 ratings
1 star 2 stars 3 stars 4 stars 5 stars
comments

Duck Pond Tab

millencolin - duchpond.
Tabbed by Poddy, poddy27@hotmail.com.
  
-------------------------------------------------------------------------------
                             Duckpond - Millencolin
-------------------------------------------------------------------------------

By: ^Poddy^
Email: poddy27@hotmail.com

^=mute
/=slide up

intro
e|----------------------------|
B|----------------------------|
G|--7--9--11-9--7--4/7--4/7---|
D|--7--9--11-9--7--4/7--4/7---|x4
A|--5--7--9--7--5--2/5--2/5---|
E|----------------------------|
[ Tab from: http://www.guitartabs.cc/tabs/m/millencolin/duck_pond_tab.html ]
verse
e|-------------|--------------|
B|--^----------|--^-----------|
G|--7--^--^--^-|--7--^--^-----|
D|--7--5--9--5-|--7--5--9--5--|x2
A|--5--5--9--5-|--5--5--9--5--|
E|-----3--7--3-|-----3--7--3--|

chorus  
e|------------------------|
B|------------------------|
G|-----11----11--7--7--7--|
D|--9--11----9---5--9--5--|x2
A|--9--9------------------|
E|--7---------------------|

then verse.....

then chours....

bridge
e|-------------------------------|
B|-------------------------------|
G|--------------------------7----|
D|--7--^-5--7--^-5--7--^-5--7----|x2
A|--7--^-5--7--^-5--7--^-5--5----|
E|--5--^-3--5--^-3--5--^-3-------|

then intro....
=============================================================================== 
:: Ultimate Guitar Archive :: 
http://www.ultimate-guitar.com 

Comments