Millencolin - Dr Jackyl And Mr Hyde Chords & Tabs

 

Dr Jackyl And Mr Hyde Chords & Tabs

Millencolin Chords & Tabs

Version: 1 Type: Tab 0 ratings
1 star 2 stars 3 stars 4 stars 5 stars
comments

Dr Jackyl And Mr Hyde Tab

   
DR. JACKYL AND MR. HYDE - Millencolin

By: Aidan Hitchcock 

 Intro:					      "on your knees..."
e|-------5--3--5---------------5--3--5--------7--------------7----------|
B|-------5--3--5---------------5--3--5--------7--------------7----------|
G|----7--6--4--6--7--6------7--6--4--6--7--6--8-let ring-7-6-8-let ring-|
D|-9--7--7--5--7--7--6---9--7--7--5--7--7--6--9----------7-6-9----------|
A|-9--5--7--5--7--5--4---9--5--7--5--7--5--4--9----------5-4-9----------|
E|-7-----5--3--5---------7-----5--3--5--------7--------------7----------|


  "today..."				      "people grin..."
e|-------5--3--5---------------5--3--5--------7--------------7----------|
B|-------5--3--5---------------5--3--5--------7--------------7----------|
G|----7--6--4--6--7--6------7--6--4--6--7--6--8-let ring-7-6-8-let ring-|
D|-9--7--7--5--7--7--6---9--7--7--5--7--7--6--9----------7-6-9----------|
A|-9--5--7--5--7--5--4---9--5--7--5--7--5--4--9----------5-4-9----------|
E|-7-----5--3--5---------7-----5--3--5--------7--------------7----------|


  "anyday..." (chorus)
e|-------------------------------------------------------|
B|-------------------------------------------------------|
G|-------------------------------------------------------|
D|-555555-777777-999999-121212121212---------------------|
A|-555555-777777-999999-121212121212-5555-4444-5555-4444-|
E|-333333-555555-777777-101010101010---------------------|


 Solo (kinda):
e|-------------------------7--7h-----------|
B|-------------------------7-----7h----12h-|
G|-----9-7-6-------9-7-6---8--------7h-----|
D|-4-7-------7-4-7-------7-9---------------|
A|-------------------------9---------------|
E|-------------------------7---------------|

 "staying in..." 
e|-----5-3-5-----| x4
B|-----5-3-5-----|
G|---7-6-4-6-7-6-|
D|-9-7-7-5-7-7-6-|
A|-9-5-7-5-7-5-4-|
E|-7---5-3-5-----|

[ Tab from: http://www.guitartabs.cc/tabs/m/millencolin/dr_jackyl_and_mr_hyde_tab.html ]
  "anyday..." (chorus)
e|-------------------------------------------------------|
B|-------------------------------------------------------|
G|-------------------------------------------------------|
D|-555555-777777-999999-121212121212---------------------|
A|-555555-777777-999999-121212121212-5555-4444-5555-4444-|
E|-333333-555555-777777-101010101010---------------------|

 guitar1 plays:	
e|------------------|	
B|------------------|
G|-9----------------|
D|-9-allow feedback-|
A|-7----------------|
E|------------------|

 while guitar2 plays:
e|-----------------------------------------| x4
B|-----------------------------------------|
G|-----------------------------------------|
D|-----------------------------------------|
A|-5/77777777\55555555/999999/10\9\7777777-|
E|-----------------------------------------|

 half-way thru second time, guitar1 comes in here with:
e|---------------------------------------|
B|---------------------------------------|
G|---------------------77777777----------|
D|---------------------77777777-77777777-|
A|---------------------55555555-77777777-|
E|------------------------------55555555-|

e|---------------------------------------| x2
B|---------------------------------------|
G|---------------------77777777-77777777-|
D|---99999999-99999999-77777777-77777777-|
A|---99999999-99999999-55555555-77777777-|
E|---77777777-77777777----------55555555-|


  "anyday..." (chorus)
e|-------------------------------------------------------|
B|-------------------------------------------------------|
G|-------------------------------------------------------|
D|-555555-777777-999999-121212121212---------------------|
A|-555555-777777-999999-121212121212-5555-4444-5555-4444-|
E|-333333-555555-777777-101010101010---------------------|

e|---------------------|x6
B|---------------------|
G|---------------------|
D|---------------------|
A|-5555-4444-5555-4444-|
E|---------------------|


	/ = slide up
	\ = slide down
	h = harmonic
Comments