Millencolin - Disney Time Chords & Tabs

 

Disney Time Chords & Tabs

Millencolin Chords & Tabs

Version: 1 Type: Tab 0 ratings
1 star 2 stars 3 stars 4 stars 5 stars
comments

Disney Time Tab

   
ARTIST: MILLENCOLIN
SONG: DISNEY TIME
ALBUM: SAME OLD TUNES
TABBER: JULIO BIEL (ME LOL)

INTRO:
e-|-------------------------------------------------------------------------
B-|-------------------------------------------------------------------------
G-|-------------------------------------------------------------------------
D-|-4-4-4-4-------------------7-7-7-7-6-4-4-4-4-------------------7-7-7-7-6-
A-|-2-2-2-2-5-5-5-3-2-7-7-7-7-5-5-5-5-4-2-2-2-2-5-5-5-3-2-7-7-7-7-5-5-5-5-4-
E-|---------3-3-3-----5-5-5-5-------------------3-3-3-----5-5-5-5-----------

e-|---------------------------------------------------------------------
B-|---------------------------------------------------------------------
G-|---------------------------------------------------------------------
D-|-4-4-4-4-----------------7-7-7-7-6-4-4-4-4-----------------7-7-7-7-6-
A-|-2-2-2-2-5-5-5-5-7-7-7-7-5-5-5-5-4-2-2-2-2-5-5-5-5-7-7-7-7-5-5-5-5-4-
E-|---------3-3-3-3-5-5-5-5-------------------3-3-3-3-5-5-5-5-----------
[ Tab from: http://www.guitartabs.cc/tabs/m/millencolin/disney_time_tab.html ]
e-|-----------------------------------------------------------------
B-|-----------------3-------5-----------------------3-------5-------
G-|-4-3-4-3-4-3-4-3-4-5-4-5-6-4-5-4-4-3-4-3-4-3-4-3-4-5-4-5-6-4-5-4-
D-|-4-------4-------5-------7-------4-------4-------5-------7-------
A-|-2-------2-------5-------7-------2-------2-------5-------7-------
E-|-----------------------------------------------------------------

e-|-------------|
B-|-5-------5-3-|
G-|-6-4-5-4-6-4-|
D-|-7-------7-5-|
A-|-7-------7-5-|
E-|-------------|

VERSE:
e-|-----------------------------------------------------------------|
B-|-----------------------------------------------------------------|
G-|-----------------------------------------------------------------|
D-|-4-4-----7-7-----4-4-----7-7-----4-4-----7-7---------------------|
A-|-2-2-5-5-5-5-7-7-2-2-5-5-5-5-7-7-2-2-5-5-5-5-7-7-5-5-5-5-7-7-7-7-|
E-|-----3-3-----5-5-----3-3-----5-5-----3-3-----5-5-3-3-3-3-5-5-5-5-|

CHORUS IS PLAYED THE SAME WAY BUT THE CHORDS ARE HELD
LONGER AND YOU PLAY THE MAIN CHORD CHANGE ONCE MORE BEFORE GOING 
INTO THE "E|-3-3-3-3-5-5-5-5" PART.

BRIDGE:
e-|------------------------------------------------------------------
B-|------------------------------------------------------------------
G-|------------------------------------------------------------------
D-|--9----7~~--9-7-7-------9---7~~--9-7-7--------9-7-7----9-7-7------
A-|---7H9---------9-9-7-5---7H9--------9-9-7-5------9--9-----9-9-7-5-
E-|-7---------7-----------7--------7------------7--------7-----------
Comments