Millencolin - Dance Craze Chords & Tabs

 

Dance Craze Chords & Tabs

Millencolin Chords & Tabs

Version: 2 Type: Bass Tab 0 ratings
1 star 2 stars 3 stars 4 stars 5 stars
comments

Dance Craze Bass Tab

Millencolin
Dance Craze
Tabbed by Arne Hauenschild (Gigabyte16@aol.com)

  Fig 1    (2x)
G |--------------------------------------|
D |-*----------------------------------*-|
A |-*-00-(000)-------------------3-2---*-|
E |------------11-(111)-33-(333)---------|


 Fig 2  (2x)
G |-----------------------|
D |-*-------------------*-|
A |-*-0--------32-------*-|
E |-----01-13-3-----------|


 Fig 3  (2x)
G |-------------------------------------------|
D |-*---------------------------------------*-|
A |-*-(00)--(000)------------------------32-*-|
E |---------------(11)-(111)-(33)-(333)-------|

 Fig 1  (2x)
 Fig 2  (2x)
 Fig 3  (2x)
 Fig 1  (2x)

 Fig 4 (But someone...)
G |--------------------|
D |-*------------------|
A |-*-000-----333---3--|
E |-------111-----3---3|

[ Tab from: http://www.guitartabs.cc/tabs/m/millencolin/dance_craze_btab_ver_2.html ]
 Fig 5 (Ah, bad boys...)  (2x)                                                                                                                     

First time
G |----------------------------------------------------------------|----|
D |-*--------------------------------------------------------------|--*-|
A |-*-----------------------------------------3333-3333-3333-3333--|3-*-|
E |---5555-5555-5555-5555-1111-1111-1111-1111---------------------3|-3--|


Second time
G |----------------------------------------------------------------|----|
D |----------------------------------------------------------------|----|
A |-----------FIG 5------------------------------------------------|3-2-|
E |----------------------------------------------------------------|----|

FIG 1 (2x)
FIG 5 (2x)
FIG 2 (1x)
Comments