Millencolin - Buzzer Chords & Tabs

 

Buzzer Chords & Tabs

Millencolin Chords & Tabs

Version: 1 Type: Tab 0 ratings
1 star 2 stars 3 stars 4 stars 5 stars
comments

Buzzer Tab

-----------------------------------------------------------------------------
			     Buzzer - Millencolin
-----------------------------------------------------------------------------
Tabbed by:NOFXMIKE	
Email:NO!
Tuning:
 Guitar 1: Rythym fig 1
e|-----------------------------------------------------------------------|
B|-----------------------------------------------------------------------|
G|---7--7-7-9-9-9-7-7--6--6-6-7-7-7-6-6--4--4-4-6-6-6-4-4--6--6-7-7-7-6-6|
D|---9--9-9-9-9-9-9-9--7--7-7-7-7-7-7-7--5--5-5-5-5-5-5-5--7--7-7-7-7-7-7|
A|-----------------------------------------------------------------------|
E|-----------------------------------------------------------------------|
     PM|------------|    |------------|    |------------|    |----------|

 Guitar 2:
e|-----------------------------------------------------------------------|
B|-----------------------------------------------------------------------|
G|---7--7-7-7-7-7-7-7--6--6-6-6-6-6-6-6--4--4-4-4-4-4-4-4--6--6-6-6-6-6-6|
D|---9--9-9-9-9-9-9-9--7--7-7-7-7-7-7-7--5--5-5-5-5-5-5-5--7--7-7-7-7-7-7|
A|-----------------------------------------------------------------------|
E|-----------------------------------------------------------------------|
     PM|------------|    |------------|    |------------|    |----------|

Guitar 3: Rythym fig 2                           Guitar 3:
e|---------------------------------------------------------------------|
B|---------------------------------------------------------------------|
G|-----------------------------------------------7*-7*-7*--------------|
D|--9--9-9-9--9--9-9-9--9--9-9-9--9--9-9-9----------------7*-7*-7*-----|
A|--9--9-9-9--9--9-9-9--9--9-9-9--9--9-9-9-------------------------7*--|
E|--7--7-7-7--7--7-7-7--7--7-7-7--7--7-7-7-----------------------------|
  PM|-------------------------------------|
Harmony on three guitars Guitar 1--top;  Guitar 2--middle; Guitar 3--bottom. 
e|-------------------------------------|
B|-------------------------------------|
G|----7----7----7----6-7-6-------------|guitar 1
D|----9----7----5----7-----------------|guitar 2
A|-------------------------------------|guitar 3(silent)
E|-------------------------------------|Repeat

Riff #1
e|--------------------------------------|
B|----7-5--7--10-7-7--10-8-7--5---7--5--|Guitar 1
G|----7-6--7---9-7-6--11-9-11-6---7--9--|Guitar 2
D|----9--------7-------5------7---------|guitar 3
A|----9--------7-------5------7---------|
E|----7--------5-------3------5---------|Repeat

e|------------------------------------|
B|------------10---8--7---5-7---------|Guitar 1
G|------------14---12-11--9-11--------|Guitar 2
D|------------9----9--9---9-9---------|guitar 3(B5)
A|------------9----9--9---9-9---------|
E|------------7----7--7---7-7---------|Repeat

Guitar 3:(siren noise)Gradually release a full step bend while pressing the
 tremolo down to desired pitch

e|-----21---------------|
B|----------------------|
G|----------------------|
D|----------------------|
A|----------------------|
E|----------------------|

Verse#1:
   Take your  silly words        and                 listen to yourself
e|---------------------------------------------------------------------|
B|---------------------------------------------------------------------|
G|--4--4-4-4--4--4-4-4--4--4-4-4--4--4-4-4--6--6-6-7--7-7-7--7---------|
D|--4---------------------------------------6------------------7--7-7-7|
A|--2--2-2-2--2--2-2-2--2--2-2-2--2--2-2-2--4--4-4-5--5-5-5--5-7-------|
E|-------------------------------------------------------------5--5-5-5|
  cause i'm living my life Tonight         and nothing's gonna hurt me
e|---------------------------------------------------------------------|
B|---------------------------------------------------------------------|
G|--4--4-4-4--4--4-4-4--4--4-4-4--4--4-4-4--6--6-6-7--7-7-7--7---------|
D|--4---------------------------------------6------------------7--7-7-7|
A|--2--2-2-2--2--2-2-2--2--2-2-2--2--2-2-2--4--4-4-5--5-5-5--5-7-------|
E|-------------------------------------------------------------5--5-5-5|

can't you understand that i can be                 Myself 
e|---------------------------------------------------------------------|
B|---------------------------------------------------------------------|
G|--4--4-4-4--4--4-4-4--4--4-4-4--4--4-4-4--6--6-6-7--7-7-7--7---------|
D|--4---------------------------------------6------------------7--7-7-7|
A|--2--2-2-2--2--2-2-2--2--2-2-2--2--2-2-2--4--4-4-5--5-5-5--5-7-------|
E|-------------------------------------------------------------5--5-5-5|

without everything  without anything, without any help from you
e|---------------------------------------------------------------------|
B|---------------------------------------------------------------------|
G|--4--4-4-4--4--4-4-4--4--4-4-4--4--4-4-4--6--6-6-7--7-7-7--7---------|
D|--4---------------------------------------6------------------7--7-7-7|
A|--2--2-2-2--2--2-2-2--2--2-2-2--2--2-2-2--4--4-4-5--5-5-5--5-7-------|
E|-------------------------------------------------------------5--5-5-5|
Bridge:
             We're not having fun,                we never really laughed
e|----------------------------------------------------------------------|
B|-----------------------------------------------------------------------|
G|-----------------------------------------------------------------------|
D|-5--5-5-5--5--5-5-5--5--5-5-5--5--5-5-5--7--7-7-9--9-9-9--9--9-9-9--9--|
A|-5--5-5-5--5--5-5-5--5---------5---------7------9--9-9-9--9---------9---|
E|-3--3-3-3--3--3-3-3--3--3-3-3--3--3-3-3--5--5-5-7--7-7-7--7--7-7-7--7--|
[ Tab from: http://www.guitartabs.cc/tabs/m/millencolin/buzzer_tab.html ]
           we have to get things right               Before we end ourselves
e|-------------------------------------------------------------------|
B|-------------------------------------------------------------------|
G|-------------------------------------------------------------------|
D|-5--5-5-5--5--5-5-5--5--5-5-5--5--5-5-5--5--5-5-5--5--7--7-7-7--7--|
A|-5--5-5-5--5--5-5-5--5---------5---------5---------5--7---------7--|
E|-3--3-3-3--3--3-3-3--3--3-3-3--3--3-3-3--3--3-3-3--3--5--5-5-5--5--|
CHorus:
What about me?                          do you care enough to say
e|----------------------------------------------------------------------|
B|----------------------------------------------------------------------|
G|--4--4-4-4--4--4-4-4--4--4-4-4--4--4-4-4--6--6-6-7--7-7-7--7--7-7-7--7|
D|--4---------------------------------------6---------------------------|
A|--2--2-2-2--2--2-2-2--2--2-2-2--2--2-2-2--4--4-4-5--5-5-5--5--5-5-5--5|
E|----------------------------------------------------------------------|
that i can't live my life this way             and you don't understand?  
e|---------------------------------------------------------------------------
B|---------------------------------------------------------------------------
G|---------------------------------------------------------------------------
D|-5--5-5-5--5--5-5-5--5--5-5-5--5--5-5-5--5--5-5-5--5--7--7-7-7--7--7-7-7--9
A|-5--5-5-5--5--5-5-5--5---------5---------5---------5--7---------7---------|
E|-3--3-3-3--3--3-3-3--3--3-3-3--3--3-3-3--3--3-3-3--3--5--5-5-5--5--5-5-5--7
What about me?                        am i the one who's going down
e|----------------------------------------------------------------------|
B|----------------------------------------------------------------------|
G|--4--4-4-4--4--4-4-4--4--4-4-4--4--4-4-4--6--6-6-7--7-7-7--7--7-7-7--7|
D|--4---------------------------------------6---------------------------|
A|--2--2-2-2--2--2-2-2--2--2-2-2--2--2-2-2--4--4-4-5--5-5-5--5--5-5-5--5|
E|----------------------------------------------------------------------|
cause sometimes i can't   Find myself and i'm wondering if this is really me
e|---------------------------------------------------------------------------
B|---------------------------------------------------------------------------
G|---------------------------------------------------------------------------
D|-5--5-5-5--5--5-5-5--5--5-5-5--5--5-5-5--5--5-5-5--5--7--7-7-7--7--7-7-7--9
A|-5--5-5-5--5--5-5-5--5---------5---------5---------5--7---------7---------|
E|-3--3-3-3--3--3-3-3--3--3-3-3--3--3-3-3--3--3-3-3--3--5--5-5-5--5--5-5-5--7

Interlude:

e|--------------------------------------|
B|----7-5--7--10-7-7--10-8-7--5---7--5--|Guitar 1
G|----7-6--7---9-7-6--11-9-11-6---7--9--|Guitar 2
D|----9--------7-------5------7---------|guitar 3
A|----9--------7-------5------7---------|
E|----7--------5-------3------5---------|Repeat

Verse #2
   I remember                               those days when we first met,
e|---------------------------------------------------------------------|
B|---------------------------------------------------------------------|
G|--4--4-4-4--4--4-4-4--4--4-4-4--4--4-4-4--6--6-6-7--7-7-7--7---------|
D|--4---------------------------------------6------------------7--7-7-7|
A|--2--2-2-2--2--2-2-2--2--2-2-2--2--2-2-2--4--4-4-5--5-5-5--5-7-------|
E|-------------------------------------------------------------5--5-5-5|

how simple things were then              With no heartache and no pain
e|---------------------------------------------------------------------|
B|---------------------------------------------------------------------|
G|--4--4-4-4--4--4-4-4--4--4-4-4--4--4-4-4--6--6-6-7--7-7-7--7---------|
D|--4---------------------------------------6------------------7--7-7-7|
A|--2--2-2-2--2--2-2-2--2--2-2-2--2--2-2-2--4--4-4-5--5-5-5--5-7-------|
E|-------------------------------------------------------------5--5-5-5|

  now things change so fast                  that we must take the time
e|---------------------------------------------------------------------|
B|---------------------------------------------------------------------|
G|--4--4-4-4--4--4-4-4--4--4-4-4--4--4-4-4--6--6-6-7--7-7-7--7---------|
D|--4---------------------------------------6------------------7--7-7-7|
A|--2--2-2-2--2--2-2-2--2--2-2-2--2--2-2-2--4--4-4-5--5-5-5--5-7-------|
E|-------------------------------------------------------------5--5-5-5|

        to talk things over and                       Listen to our minds--
e|---------------------------------------------------------------------|
B|---------------------------------------------------------------------|
G|--4--4-4-4--4--4-4-4--4--4-4-4--4--4-4-4--6--6-6-7--7-7-7--7---------|
D|--4---------------------------------------6------------------7--7-7-7|
A|--2--2-2-2--2--2-2-2--2--2-2-2--2--2-2-2--4--4-4-5--5-5-5--5-7-------|
E|-------------------------------------------------------------5--5-5-5|
Bridge:
             We're not having fun,                we never really laughed
e|---------------------------------------------------------------------------
B|---------------------------------------------------------------------------
G|---------------------------------------------------------------------------
D|-5--5-5-5--5--5-5-5--5--5-5-5--5--5-5-5--7--7-7-9--9-9-9--9--9-9-9--9------
A|-5--5-5-5--5--5-5-5--5---------5---------7------9--9-9-9--9---------9------
E|-3--3-3-3--3--3-3-3--3--3-3-3--3--3-3-3--5--5-5-7--7-7-7--7--7-7-7--7------
            we have to get things right               Before we end ourselves
e|---------------------------------------------------------------------------
B|---------------------------------------------------------------------------
G|---------------------------------------------------------------------------
D|-5--5-5-5--5--5-5-5--5--5-5-5--5--5-5-5--5--5-5-5--5--7--7-7-7--7--7-7-7--9
A|-5--5-5-5--5--5-5-5--5---------5---------5---------5--7---------7---------9
E|-3--3-3-3--3--3-3-3--3--3-3-3--3--3-3-3--3--3-3-3--3--5--5-5-5--5--5-5-5--7

CHorus:
What about me?                          do you care enough to say
e|----------------------------------------------------------------------|
B|----------------------------------------------------------------------|
G|--4--4-4-4--4--4-4-4--4--4-4-4--4--4-4-4--6--6-6-7--7-7-7--7--7-7-7--7|
D|--4---------------------------------------6---------------------------|
A|--2--2-2-2--2--2-2-2--2--2-2-2--2--2-2-2--4--4-4-5--5-5-5--5--5-5-5--5|
E|----------------------------------------------------------------------|
that i can't live my life this way             and you don't understand?  
e|---------------------------------------------------------------------------
B|---------------------------------------------------------------------------
G|---------------------------------------------------------------------------
D|-5--5-5-5--5--5-5-5--5--5-5-5--5--5-5-5--5--5-5-5--5--7--7-7-7--7--7-7-7--9
A|-5--5-5-5--5--5-5-5--5---------5---------5---------5--7---------7---------|
E|-3--3-3-3--3--3-3-3--3--3-3-3--3--3-3-3--3--3-3-3--3--5--5-5-5--5--5-5-5--7
What about me?                        am i the one who's going down
e|----------------------------------------------------------------------|
B|----------------------------------------------------------------------|
G|--4--4-4-4--4--4-4-4--4--4-4-4--4--4-4-4--6--6-6-7--7-7-7--7--7-7-7--7|
D|--4---------------------------------------6---------------------------|
A|--2--2-2-2--2--2-2-2--2--2-2-2--2--2-2-2--4--4-4-5--5-5-5--5--5-5-5--5|
E|----------------------------------------------------------------------|
cause sometimes i can't   Find myself and i'm wondering if this is really me
e|---------------------------------------------------------------------------
B|---------------------------------------------------------------------------
G|---------------------------------------------------------------------------
D|-5--5-5-5--5--5-5-5--5--5-5-5--5--5-5-5--5--5-5-5--5--7--7-7-7--7--7-7-7--9
A|-5--5-5-5--5--5-5-5--5---------5---------5---------5--7---------7---------|
E|-3--3-3-3--3--3-3-3--3--3-3-3--3--3-3-3--3--3-3-3--3--5--5-5-5--5--5-5-5--7

Outro:Gradually depress the tremolo while descending from B5 
e|-----------------------------------------|
B|-----------------------------------------|
G|-----------------------------------------|
D|-9-9--7-7--7-6--6-6--6-5--5-5--5-4--4-4--|
A|-9-9--7-7--7-6--6-6--6-5--5-5--5-4--4-4--|
E|-7-7--5-5--5-4--4-4--4-3--3-3--3-2--2-2--|
Comments