Millencolin - Bullion Chords & Tabs

 

Bullion Chords & Tabs

Millencolin Chords & Tabs

Version: 5 Type: Tab 0 ratings
1 star 2 stars 3 stars 4 stars 5 stars
comments

Bullion Tab

----------------------------------------------------------------------------
			     bullion by millencolin
----------------------------------------------------------------------------
Tabbed by: mike
Email:zyasha@hotmail.com

Tuning:Standard

very quitely before the intro you can here this
e|-------------15-14--|
B|----15----15--------|do as many times as needed
G|-------14-----------|
D|--------------------|
A|--------------------|
E|--------------------|

e|---------------------------------------------------------|
B|---------------------------------------------------------|
G|---------------------------------------------------------|
D|---7-------2---------------------------------------------| x2
A|---5-7-3---4-5-7-----------------------------------------|
E|-----5-5-----3-5-----------------------------------------|

intro2
e|--------------------------|
B|--------------------------|
G|--------------------------|
D|---7------------2---------|x2
A|---5-7-3xxx-----4-5-7xxx--|
E|-----5-5xxx-------3-5xxx--|
[ Tab from: http://www.guitartabs.cc/tabs/m/millencolin/bullion_tab_ver_5.html ]
verse     all palm muting is done realy fast up and down
e|----------------------------------------------------------|
B|----------------------------------------------------------|
G|----------------------------------------------------------|x2
D|--7xxxxxxxx-----------------------------------------------|
A|--5xxxxxxxx-7xxxxxxxx-5xxxxxxxx-9xxxx--7xxxx--------------|
E|------------5xxxxxxxx-3xxxxxxxx-7xxxx--5xxxx--------------|
      the 9xxxx-7xxxx parts its palm muting is done with down strokes only
          7xxxx-5xxxx

verse2 its right after verse
e|----------------------------------------|
B|----------------------------------------|
G|----------------------------------------|
D|--77777777------------------------------|2x
A|--55555555-77777777-55555555-9999-7777--|
E|-----------55555555-77777777-7777-5555--|

bridge
e|------------------------------------------------|
B|------------------------------------------------|
G|---7--9--12-11-11-12-11-9-7--7--9--12-11-12-14--|
D|------------------------------------------------|
A|------------------------------------------------|
E|------------------------------------------------|

i think theres some thing else be for this but i dont know
outro
e|-----15-14----|
B|-----------15-|
G|--------------|repeat as much as times as you feel
D|--------------|
A|--------------|
E|--------------|

end
e|------------------|
B|------------------|
G|------------------|
D|---7-------2------|
A|---5-7-3---4-5-7--|
E|-----5-5-----3-5--|

x palm mute

now the order

intro x2
intro2 x2
verse x2
verse2 x2
intro2 x2
verse x2
verse2 x2
bridge x1
outro x8 i think

ok thats my tab i am completly sure this is right well exept my spelling
so if any comments or any thing email me by the way look for my band the snowglobes. 
we are working on the name.
Comments