Millencolin - Bullion Chords & Tabs

 

Bullion Chords & Tabs

Millencolin Chords & Tabs

Version: 2 Type: Tab 0 ratings
1 star 2 stars 3 stars 4 stars 5 stars
comments

Bullion Tab

Artist- Millencolin
Album- Life on a Plate (and Punk-o-rama 2)
tabbed by- Jamie Dudley

The other version on this site was good but wrong, this is more right.

^^^= palm muted
h= hammer on
p= pull off
  intro- x2
e|-------------------|
B|-------------------|
G|-7-----------------|
D|-7-7-5----9-5-7----|
A|-5-7-5----9-5-7----|
E|---5-3----7-3-5----|

  intro part two- x2
e|-----------------------------|
B|-----------------------------|
G|-7---------------------------|
D|-7-7-5--5-5-5---9-5-7--7-7-7-|
A|-5-7-5--5-5-5---9-5-7--7-7-7-|
E|---5-3--3-3-3---7-3-5--5-5-5-|
          ^^^^^          ^^^^^         

  verse- x2 all palm muted ( exept first chord every change)
e|---------------|-----------------|-----------------|-----------------|
B|---------------|-----------------|-----------------|-----------------|
G|-7-7-7-7-7-7-7-|-----------------|-----------------|-----------------|
D|-7-7-7-7-7-7-7-|-7-7-7-7-7-7-7-7-|-5-5-5-5-5-5-5-5-|-9-9-9-9-7-7-7-7-|
A|-5-5-5-5-5-5-5-|-7-7-7-7-7-7-7-7-|-5-5-5-5-5-5-5-5-|-9-9-9-9-7-7-7-7-|
E|---------------|-5-5-5-5-5-5-5-5-|-3-3-3-3-3-3-3-3-|-7-7-7-7-5-5-5-5-|
     ^^^^^^^^^^^     ^^^^^^^^^^^^^     ^^^^^^^^^^^^^     ^^^^^   ^^^^^
[ Tab from: http://www.guitartabs.cc/tabs/m/millencolin/bullion_tab_ver_2.html ]
  verse part two- x2 
e|---------------|-----------------|-----------------|-----------------|
B|---------------|-----------------|-----------------|-----------------|
G|-7-7-7-7-7-7-7-|-0-0-0-0-0-0-0-0-|-0-0-0-0-0-0-0-0-|-0-0-0-0-0-0-0-0-|
D|-7-7-7-7-7-7-7-|-7-7-7-7-7-7-7-7-|-5-5-5-5-5-5-5-5-|-9-9-9-9-7-7-7-7-|
A|-5-5-5-5-5-5-5-|-7-7-7-7-7-7-7-7-|-5-5-5-5-5-5-5-5-|-9-9-9-9-7-7-7-7-|
E|---------------|-5-5-5-5-5-5-5-5-|-3-3-3-3-3-3-3-3-|-7-7-7-7-5-5-5-5-|

repeat intro part two

repeat whole of verse

  chorus- same as other version
e|----------------------------------------|-------------------------|
B|----------------------------------------|-------------------------|
G|-7~~~-9~~~--12-11~~~~-11h12p11-9-11-9---|-7~~-9~~-12-11~~-12~~-14-|
D|----------------------------------------|-------------------------|
A|----------------------------------------|-------------------------|
E|----------------------------------------|-------------------------|

  then there is no guitar for a bit but some "aaah aaah" type things 
  in the background, listen to the cd

  outro riff- this sorta sounds right, i dont know how many times they play it
e|----------|
B|----------|
G|----14h12-|
D|-12-------|
A|----------|
E|----------|

  I'm convinced this is atleast 90% right, if you can thing of some changes, tab it out and post it 
  on this site
Comments