Millencolin - Black Gold Chords & Tabs

 

Black Gold Chords & Tabs

Millencolin Chords & Tabs

Version: 2 Type: Bass Tab 0 ratings
1 star 2 stars 3 stars 4 stars 5 stars
comments

Black Gold Bass Tab

Song: Black gold
Band: Millencolin
Album: For monkeys
tabbed by: Carlos pino

intro
G:---------------------------------------------------------------
D:---------------------------------------------------------------
A:-------------------------------------------------5-5-5-5--7-7-7-7--5-5-5-5-
E:-7-7-7-7--5-5-5-5--3-3-3-3--5-5-5-5-------------------------------------
repeat

verse
G:---------------------------------------------------------------
D:---------------------------------------------------------------
A:------3>--5-7-7-5--------2>---5-7-7-5-----------------
E:-3>-------------------3>------------------------------------
repeat

chorus
G:---------------------------------------------------------------
D:---------------------------------------------------------------
A:-2>--5>--10>--9>--7>--5>--2>--5>-----------------
E:------------------------------------------------3>------------
[ Tab from: http://www.guitartabs.cc/tabs/m/millencolin/black_gold_btab_ver_2.html ]
verse (it change a little bit)
G:------------------------------------------------------------------------
D:-----------------------x2---------------------------------------------
A:------2>--5-7-7-5---------------3>--5-7-7-5----------2>--5-7-7-5
E:-3>--------------------------3>----------------------3>------------------

chorus (it change a little bit too)
G:---------------------------------------------------------------
D:---------------------------------------------------------------
A:-2>--5>--10>--9>--7>--5>----------------------------
E:---------------------------------------------------------------
repeat

bridge   x2
G:---------------------------------------------------------------
D:---------------------------------------------------------------
A:-7>--3>----5>---------------------------------------------
E:---------------------------------------------------------------

intro

bridge 2
G----------------------------------------------------------------
D----------------------------------------------------------------
A------3>-------2>--3>--5>-7>-5>-----------------------
E-0>-------0>------------------------------------------------

outro           X2
G----------------------------------------------------------------
D----------------------------------------------------------------
A------2>--5-7-7-5-----------------------------------------------------
E-3>---------------------3-----------------------------------------
Comments