Millencolin - Black Eye Chords & Tabs

 

Black Eye Chords & Tabs

Millencolin Chords & Tabs

Version: 1 Type: Tab 0 ratings
1 star 2 stars 3 stars 4 stars 5 stars
comments

Black Eye Tab

------------------------------------------------------------------------
                               BLACK EYE - Millencolin
------------------------------------------------------------------------

By: Becky beck_e_b@greenday.ws

This is the correct tab

INTRO: repeat 10x's  
{guitar 1}
e|------2-------2--2---333-222----------------------------------------|
B|-------3-------3--3-------------------------------------------------|
G|--------------------------------------------------------------------|
D|--------------------------------------------------------------------|
A|-2-2--------2-------------------------------------------------------|
E|--------------------------------------------------------------------|
  
{guitar 2}
chorus:
        strum each chord 9x's(play four times)
e|--------------------------------------------------------------------
B|--------------------------------------------------------------------
G|---4-------7--------------------------------------------------------
D|---4--5----7----7---------------------------------------------------
A|---2--5----5----7---------------------------------------------------
E|------3---------5---------------------------------------------------

VERSE:  play twice and then then strum open with downstrokes(listen to song
for timing!!) 
    so now i got a black eye...
e|---------------------------------------------------------------------
B|---------------------------------------------------------------------
G|--4--44-4----------7-7-7-7---6---7-----------------------------------
D|--x--xx-x----------x-x-x-x---x---x-----------------------------------
A|--2--22-2----------5-5-5-5---5---5-----------------------------------
E|---------------------------------------------------------------------

guitar 2- let chords ring after 2nd time while guitar one keeps doing the
same thing(right before going into the chorus strum up and down with dead
strings)
e|---------------------------------------------------------------------
B|---------------------------------------------------------------------
G|--4--44-4----------7-7-7-7---6---7-----------------------------------
D|--x--xx-x----------x-x-x-x---x---x-----------------------------------
A|--2--22-2----------5-5-5-5---5---5-----------------------------------
E|---------------------------------------------------------------------

[ Tab from: http://www.guitartabs.cc/tabs/m/millencolin/black_eye_tab.html ]
chorus:
          see it in my eyes...
e|--------------------------------------------------------------------
B|--------------------------------------------------------------------
G|---4-------7--------------------------------------------------------
D|---4--5----7----7------------5xxxxxxxx------------------------------
A|---2--5----5----7------------5xxxxxxxx------------------------------
E|------3---------5------------3xxxxxxxx------------------------------

bridge:everybodys talkin bout you....
e|--------------------------------------------------------------------
B|--------------------------------------------------------------------
G|---7----------------------------------------------------------------
D|---7--7---5x--------------------------------------------------------
A|---5--7---5x--------------------------------------------------------
E|------5---3x--------------------------------------------------------
 
    guitar 2(each time go a fret higher but use same chord progression)
e|--------------------------------------------------------------|
B|----11--9---7--6----------------------------------------------|
G|----x---x---x--x----------------------------------------------|
D|----9---7---5--4----------------------------------------------|
A|--------------------------------------------------------------|
E|--------------------------------------------------------------|

go back to intro:INTRO: repeat 10x's  
{guitar 1}
e|------2-------2--2---333-222----------------------------------------|
B|-------3-------3--3-------------------------------------------------|
G|--------------------------------------------------------------------|
D|--------------------------------------------------------------------|
A|-2-2--------2-------------------------------------------------------|
E|--------------------------------------------------------------------|
  
{guitar 2}
chorus:
        strum each chord 9x's(play four times)
e|--------------------------------------------------------------------
B|--------------------------------------------------------------------
G|---4-------7--------------------------------------------------------
D|---4--5----7----7---------------------------------------------------
A|---2--5----5----7---------------------------------------------------
E|------3---------5---------------------------------------------------

outro  
e|---------------------------------------------------------------------
B|---------------------------------------------------------------------
G|------12--9----------------------------------------------------------
D|---5--x---x---5------------------------------------------------------
A|---5--10--7---5------------------------------------------------------
E|---3----------3------------------------------------------------------




Comments