Millencolin - Birdie Chords & Tabs

 

Birdie Chords & Tabs

Millencolin Chords & Tabs

Version: 1 Type: Tab 0 ratings
1 star 2 stars 3 stars 4 stars 5 stars
comments

Birdie Tab

Song: Birdie
Band: Millencolin



"Cause we want to, yeah we all want to"

e|--------------------------|
B|--10-10-10-10-10-10-10-10-|
G|--9--9--9--9--9--9--9--9--|
D|--7--7--7--7--7--7--7--7--|
A|--------------------------|
E|--------------------------|
 |
 |
e|--------------------------|
B|--------------------------|
G|--------------------------|
D|--7-7-7-7-7-7-7-7-7-7-7-7-|
A|--7-7-7-7-7-7-7-7-7-7-7-7-|
E|--5-5-5-5-5-5-5-5-5-5-5-5-|



Verse x2
e|--------------------------|----------------------|
B|--------------------------|----------------------|
G|--6--------------9--9-----|--6-------------------|
D|--6--6-6--*--7---9--9--9--|--6--6-6--7-6-7-9-----|
A|--4--6-6--*--7---7--7--9--|--4--6-6--7-6-7-9-----|
E|-----4-4--*--5---------7--|-----4-4--5-4-5-7-----|


Pre Chorus
e|-----------------------------|
B|-----------------------------|
G|-----------------------------|
D|-7---let ring-----7--let ring|
A|-7----------------7----------|
E|-5----------------5----------|



Chorus
e|-----------------------------|-------------------------------|
B|-----------------9-----------|-----------------9---10--------|
G|--9b(11)r-9h11-9---9-11-9----|--9b(11)r-9h11-9---9----9------|
D|-----------------------------|-------------------------------|
A|----------x3-----------------|-----------4th time------------|
E|-----------------------------|-------------------------------|
 |make sure this lick play in every chord
 |
e|-------------------------------------------------------------|
B|-------------------------------------------------------------|
G|--6---6---6--6------------------9---9---9--9-----------------|
D|--6---6---6--6--7---7---7--7----9---9---9--9---9---9---9--9--|
A|--4---4---4--4--7---7---7--7----7---7---7--7---9---9---9--9--|
E|----------------5---5---5--5-------------------7---7---7--7--|



Bridge "yeah i know its not an easy mission"
e|--------------------------------------------------------|
B|--------------------------------------------------------|
G|--------------------------------------------------------|
D|-4-4-4-4-4-4-4-4-4-4-4-4-4-2-2-2-2-2-2-2-2-2-2-2-2-2-2--|
A|-4-4-4-4-4-4-4-4-4-4-4-4-4-2-2-2-2-2-2-2-2-2-2-2-2-2-2--|
E|-2-2-2-2-2-2-2-2-2-2-2-2-2-0-0-0-0-0-0-0-0-0-0-0-0-0-0--|
 |
 |
e|--------------------------------------------------------|
B|--------------------------------------------------------|
G|-14-14-14-14-16-16-16-16-16--9-9-9-9-9-9--11-13---------|
D|--x--x--x--x--x--x--x--x--x--x-x-x-x-x-x---x--x---------|
A|-12-12-12-12-14-14-14-14-14--7-7-7-7-7-7---9-11---------|
E|--------------------------------------------------------|

[ Tab from: http://www.guitartabs.cc/tabs/m/millencolin/birdie_tab.html ]
e|--------------------------------------------------------|
B|--------------------------------------------------------|
G|---------------------------------------4-4-4-4-4-4-4-4--|
D|-4-4-4-4-4-4-4-4-4-4-4-4-4-2-2-2-2-2-2-4-4-4-4-4-4-4-4--|
A|-4-4-4-4-4-4-4-4-4-4-4-4-4-2-2-2-2-2-2-2-2-2-2-2-2-2-2--|
E|-2-2-2-2-2-2-2-2-2-2-2-2-2-0-0-0-0-0-0------------------|
 |
 |
e|--------------------------------------------------------|
B|--------------------------------------------------------|
G|-14-14-14-14-16-16-16-16-16--9-9-9-9-9-9--11--8---------|
D|--x--x--x--x--x--x--x--x--x--x-x-x-x-x-x---x--x---------|
A|-12-12-12-12-14-14-14-14-14--7-7-7-7-7-7---9--6---------|
E|--------------------------------------------------------|

  
e|--------------------------------------------------------|
B|--------------------------------------------------------|
G|--------------------------------------------------------|
D|-4-4-4-4-4-4-4-4-4-4-4-4-4-2-2-2-2-2-2-2-2-2-2-2-2-2-2--|
A|-4-4-4-4-4-4-4-4-4-4-4-4-4-2-2-2-2-2-2-2-2-2-2-2-2-2-2--|
E|-2-2-2-2-2-2-2-2-2-2-2-2-2-0-0-0-0-0-0-0-0-0-0-0-0-0-0--|
 |
 |
e|--------------------------------------------------------|
B|--------------------------------------------------------|
G|-14-14-14-14-16-16-16-16-16--9-9-9-9-9-9--11-13---------|
D|--x--x--x--x--x--x--x--x--x--x-x-x-x-x-x---x--x---------|
A|-12-12-12-12-14-14-14-14-14--7-7-7-7-7-7---9-11---------|
E|--------------------------------------------------------|


e|--------------------------------------------------------|
B|--------------------------------------------------------|
G|---------------------------2-2-2-2-2-2-4-4-4-4-4-4-4-4--|
D|-4-4-4-4-4-4-4-4-4-4-4-4-4-2-2-2-2-2-2-4-4-4-4-4-4-4-4--|
A|-4-4-4-4-4-4-4-4-4-4-4-4-4-0-0-0-0-0-0-2-2-2-2-2-2-2-2--|
E|-2-2-2-2-2-2-2-2-2-2-2-2-2------------------------------|
 |
 |
e|--------------------------------------------------------|
B|--------------------------------------------------------|
G|-14-14-14-14-16-16-16-16-16--9-9-9-9-9-9--11-11-11-11---|
D|--x--x--x--x--x--x--x--x--x--x-x-x-x-x-x---x--x--x--x---|
A|-12-12-12-12-14-14-14-14-14--7-7-7-7-7-7---9--9--9--9---|
E|--------------------------------------------------------|





Lick part and Chorus, till fade out
e|-----------------------------|-------------------------------|
B|-----------------9-----------|-----------------9---10--------|
G|--9b(11)r-9h11-9---9-11-9----|--9b(11)r-9h11-9---9----9------|
D|-----------------------------|-------------------------------|
A|----------x3-----------------|-----------4th time------------|
E|-----------------------------|-------------------------------|
 |make sure this lick play in every chord
 |
e|-------------------------------------------------------------|
B|-------------------------------------------------------------|
G|--6---6---6--6------------------9---9---9--9-----------------|
D|--6---6---6--6--7---7---7--7----9---9---9--9---9---9---9--9--|
A|--4---4---4--4--7---7---7--7----7---7---7--7---9---9---9--9--|
E|----------------5---5---5--5-------------------7---7---7--7--|
Comments