Millencolin - Battery Check Chords & Tabs

 

Battery Check Chords & Tabs

Millencolin Chords & Tabs

Version: 1 Type: Tab 0 ratings
1 star 2 stars 3 stars 4 stars 5 stars
comments

Battery Check Tab

*=let ring
/=slide up
\=slide down
p=palm mute


intro
guitar 1
e]-----2-x12--5-x4--3-x8--2-2-2-3-3-0-0-0---2-x12--5x4--3x8--2-2-2-2-(1st time only)
B]-----0------3-----3-----3-3-3-3-3-3-3-3---0------3----3----3-3-3-3----------------
G]----------------------------------------------------------------------------------
D]----------------------------------------------------------------------------------
A]----------------------------------------------------------------------------------
E]----------------------------------------------------------------------------------

guitar2(you time it right)

e]--------------------------------------------------------------------
B]--------------------------------------------------------------------
G]--------------------------------------------------------------------
D]--------------------------------------------------------------------
A]----9-*--12-12-12-x1-9--7--9--7--9--12--12--7--7--12-7-x4-----------
E]----7----10-10-10----7--5--7--9--7--10--10--9--9--10-9--------------

verse 1
guitar 1(you time it)
e]----2*--2*--0*--3*--------------------------------2x32-3x8-0x8-3x8-0x8
B]----0---3---3---3---------------------------------0----3---3---3---3--
G]----------------------------------------------------------------------
D]----------------------------------------------------------------------
A]--------------------9--7--9--7--9--12--12--7-7p-----------------------
E]--------------------7--5--7--5--7--10--10--5-5------------------------

guitar 2(with guitar 1)
e]--2x48--------------------------------------------------------------
B]--0-----------------------------------------------------------------
G]--------------------------------------------------------------------
D]--------------------------------------------------------------------
A]------------9--7--9--7--9--12--12--7-7p-----------------------------
E]------------7--5--7--5--7--10--10--5-5------------------------------



pre chorus
guitar 1
e]--2-2---2----x10----------------------------------------------------
B]------3---3---------------------------------------------------------
G]--------------------------------------------------------------------
D]--------------------------------------------------------------------
A]--------------------------------------------------------------------
E]--------------------------------------------------------------------
[ Tab from: http://www.guitartabs.cc/tabs/m/millencolin/battery_check_tab.html ]
Guitar 2
e]-------------------------------------------------------------------
B]-------------------------------------------------------------------
G]-------------------------------------------------------------------
D]-------------------------------------------------------------------
A]---2x8--5x8---after guitar 1 does his 8x---------------------------
E]---0----3----------------------------------------------------------

 intro

verse 

pre chorus

verse 2
guitar 1
e]--0-0-0-2-2------2-2---------0-0-0-2-2---------------------------
B]--0-5-5-3-3-3*---3-3-3-3-3*--0-5-5-3-3-3*------------------------
G]------------4--------2-2-4-------------4-------------------------
D]-----------------------------------------------------------------
A]-----------------------------------------------------------------
E]-----------------------------------------------------------------

guitar 2
e]-------------------------------------------------------
B]-------------------------------------------------------
G]-------------------------------------------------------
D]-------------------------------------------------------
A]---9-9--9\7--7\5x3----2-2-2-4-5*-----------------------
E]---7-7--7\5--5\3------0-0-0-2-3------------------------

pre outro

guitar 1
e]----2x12--5x4--3x8--5x8-------------------------------
B]----0-----3----3----3---------------------------------
G]------------------------------------------------------
D]------------------------------------------------------
A]------------------------------------------------------
E]------------------------------------------------------

outro

guitar 1
e]---2x12--5x33x8--0x3-2-0-x3--0x8-3x8-0x8-3x8-2*---------------------
B]---3-----3--3----3---3-3-----------------3---3----------------------
G]--------------------------------------------------------------------
D]--------------------------------------------------------------------
A]--------------------------------------------------------------------
E]--------------------------------------------------------------------


guitar 2
e]------------------------------------------------------------
B]------------------------------------------------------------
G]------------------------------------------------------------
D]---------7x12-9x3-------|x3------------------9x8-12x8-7*----
A]---5x7---5----7--9x8-7x8|----2x8-5x8-2x8-5x8-7---10---5-----
E]---3-------------7---5--|----0---3---0---3------------------


thats it. i know theres some wrong parts in it that
i couldnt quite figure out 
but this is my first tab.
Comments