Millencolin - An Elf And His Zippo Chords & Tabs

 

An Elf And His Zippo Chords & Tabs

Millencolin Chords & Tabs

Version: 1 Type: Tab 0 ratings
1 star 2 stars 3 stars 4 stars 5 stars
comments

An Elf And His Zippo Tab

artist: millencolin
song: an elf and his zippo


Intro
e-|----------------------------------------------------------------|
B-|----------------------------------------------------------------|
G-|----------------------------------------------------------------|
D-|----------------------------------------------------------------|
A-|----------------------5-5---------------------------------------| 
E-|----7-7-7-7-7---5-5---------------------------------------------| 

verse
e-|----------------------------------------------------------------|
B-|----------------------------------------------------------------|
G-|----------------------------------------------------------------|
D-|-9----7----5----7-----------------------------------------------|
A-|-9----7----5----7-----------------------------------------------|
E-|-7----5----3----5-----------------------------------------------| 
[ Tab from: http://www.guitartabs.cc/tabs/m/millencolin/an_elf_and_his_zippo_tab.html ]
chrous
e-|----------------------------------------------------------------|
B-|----------------------------------------------------------------|
G-|-----7----------7-----------7----------7------------------------|
D-|-9-7-7------9-7-7-------9-7-7------9-7-7------------------------|
A-|-9-7-5------9-7-5-------9-7-5------9-7-5------------------------|
E-|-7-5--------7-5---------7-5--------7-5--------------------------| 

bridge
e----------------|
b----------------|
g----------------|
d-9--7-7-7--9----|
a-9--7-7-7--9----|
e-7--5-5-5--7----|

outro
e----------------------------------------------------------------|
B----------------------------------------------------------------|
G-------------------7-7-7-7--------------------------------------|
D-9-9-9-9--7-7-7-7--7-7-7-7--------------------------------------|
A-9-9-9-9--7-7-7-7--5-5-5-5--------------------------------------|
E-7-9-9-9--5-5-5-5-----------------------------------------------|



intro x8
verse x2
intro x4
verse x2
intro x4
chrous x3
bridge x2
chrous x1
verse x1
chrous x2
intro x2
chrous x2
intro x4
verse- do 1 half
outro x11

tabbed by: aaron marquet  email: azzman_123@hotmail.com

i have msn so add me if you want

                                 peace
Comments