Millencolin - Air Head Chords & Tabs

 

Air Head Chords & Tabs

Millencolin Chords & Tabs

Version: 1 Type: Bass Tab 0 ratings
1 star 2 stars 3 stars 4 stars 5 stars
comments

Air Head Bass Tab

Song: Airhead 
Band: Millencolin 
Album: Life on a plate 
Tabbed by: Martijn de Wilde (martinjthewild@yahoo.com) 

> means 8x, r means let ring... 

Intro 
G----------- 
D----------- 
A-99---77--- 
E----------- 

Verse 
G--------------------------------------- 
D--976-679--976-679--976-679------------ 
A-----7--------7--------7------67976---- 
E-7--------7--------7--------79-----9--- 
[ Tab from: http://www.guitartabs.cc/tabs/m/millencolin/air_head_btab.html ]
Pre-Chorus 
G------------------------ 
D------------------------ 
A------77777-----77777--- 
E-77777-----99999-------- 

Chorus 
G--------------- 
D--------------- 
A----7>----7>--- 
E-7>----9>------ 

Bridge 
G------------------------------------------------------------ 
D------------------------------------------------------------ 
A----------------------976-679--976-976--976-679---99---77--- 
E-4r---7r---4r---7r---7---9----7---9----7---9---------------- 

This is a f*ckin' cool song!!! 

Comments