Millencolin - Afghan Chords & Tabs

 

Afghan Chords & Tabs

Millencolin Chords & Tabs

Version: 2 Type: Tab 0 ratings
1 star 2 stars 3 stars 4 stars 5 stars
comments

Afghan Tab

   
-------------------------------------------------------------------------------
			AFGHAN - Millencolin
-------------------------------------------------------------------------------
Tabbed by: Jolz
Email: Jolzton@hotmail.com

Tuning: Standard E A D G B E

The other tab for this song I believe dose not sound right at all, so I tabbed it
myself, there properly will be some mistakes, but the lead guitar very quiet and a
bit hard to hear for the intro, but I tried my best so enjoy.

Ill do the bass next.

Intro

Gtr 1
e|-4-44-555-444-5554-44-444-444-44-44-44-555-44445555555555-5------4-5-------|
B|-7-77-777-777-7775-55-555-555-55-57-77-777-77777777777777-7------7-7-------|
G|---------------------------------------------------------------------------|
D|---------------------------------------------------------------------------|
A|---------------------------------------------------------------------------|
E|---------------------------------------------------------------------------|

Gtr 2
e|-----------------------------------------------5--0------------------------|
B|----------------------------------------------------3~~~~~~----------------|
G|---------------------------------------------------------------------------|
D|---------------------------------------------------------------------------|
A|--------------0205~~~~~~~-----020--------------------------5\--------------|
E|-2~~~~~--------------------------2~~~~~~~~---------------------------------|

Pre-verse

Gtr 1
e|-44-44-555-444554-44-44-444-44--5--4---------------------------------------|
B|-77-77-777-777777-75-55-555-55--5--5---------------------------------------|
G|---------------------------------------------------------------------------|
D|---------------------------------------------------------------------------|
A|-------------------------------------X2------------------------------------|
E|---------------------------------------------------------------------------|

Gtr 2
e|---------------------------------------------------------------------------|
B|---------------------------------------------------------------------------|
G|------------------77-77-777-77--7--7---------------------------------------|
D|-44-44-444-444444-77-77-777-77--7--7---------------------------------------|
A|-44-44-444-444444-55-55-555-55--5--5-X2------------------------------------|
E|-22-22-222-222222----------------------------------------------------------|

Verse

Gtr 1 & 2
e|---------------------------------------------------------------------------|
B|---------------------------------------------------------------------------|
G|-------------------7-------------------------------------------------------|
D|-4-----------------7--77777777777777---------------------------------------|
A|-4--44444444444444-5--55555555555555-X2------------------------------------|
E|-2--22222222222222---------------------------------------------------------|

Chorus 1

Gtr 1
e|-5---4--0--5---4--0---5-----4----0----5---4-0-----------------------------|
B|-5---5--7--5---5--7---5-----5----7----5---5--7-----------------------------|
G|---------------------------------------------------------------------------|
D|---------------------------------------------------------------------------|
A|---------------------------------------------------------------------------|
E|---------------------------------------------------------------------------|

Gtr 2
e|---------------------------------------------------------------------------|
B|---------------------------------------------------------------------------|
G|-4--444444-7--777777-11--111111111111-9--999999----------------------------|
D|-4--444444-7--777777-11--111111111111-9--999999----------------------------|
A|-2--222222-5--555555--9-9-9-9-9-9-9--7--777777----------------------------|
E|---------------------------------------------------------------------------|


Gtr 1
e|-5---4--0--5---4--0---5-----4----0-----------------------------------------|
B|-5---5--7--5---5--7---5-----5----7-----------------------------------------|
G|--------------------------------------9--xxxxxx----------------------------|
D|--------------------------------------9--xxxxxx----------------------------|
A|--------------------------------------7--xxxxxx----------------------------|
E|---------------------------------------------------------------------------|

Gtr 2
e|---------------------------------------------------------------------------|
B|---------------------------------------------------------------------------|
G|-4--444444-7--777777-11--111111111111-9--xxxxxx----------------------------|
D|-4--444444-7--777777-11--111111111111-9--xxxxxx----------------------------|
A|-2--222222-5--555555--9-9-9-9-9-9-9--7--xxxxxx----------------------------|
E|---------------------------------------------------------------------------|

Pre-verse

Gtr 1
e|-44-44-555-444554-44-44-444-44--5--4---------------------------------------|
B|-77-77-777-777777-75-55-555-55--5--5---------------------------------------|
G|---------------------------------------------------------------------------|
D|---------------------------------------------------------------------------|
A|-------------------------------------X2------------------------------------|
E|---------------------------------------------------------------------------|

Gtr 2
e|---------------------------------------------------------------------------|
B|---------------------------------------------------------------------------|
G|------------------77-77-777-77--7--7---------------------------------------|
D|-44-44-444-444444-77-77-777-77--7--7---------------------------------------|
A|-44-44-444-444444-55-55-555-55--5--5-X2------------------------------------|
E|-22-22-222-222222----------------------------------------------------------|

Verse

Gtr 1 & 2
e|---------------------------------------------------------------------------|
B|---------------------------------------------------------------------------|
G|-------------------7-------------------------------------------------------|
D|-4-----------------7--77777777777777---------------------------------------|
A|-4--44444444444444-5--55555555555555-X2------------------------------------|
E|-2--22222222222222---------------------------------------------------------|

Interlude (Pre-Chorus)

Gtr 1
e|-4--45--44554455555-4--45--44554455555-------------------------------------|
B|-7--77--77777777777-7--77--77777777777-X2----------------------------------|
G|---------------------------------------------------------------------------|
D|---------------------------------------------------------------------------|
A|---------------------------------------------------------------------------|
E|---------------------------------------------------------------------------|

Gtr 2
e|---------------------------------------------------------------------------|
B|---------------------------------------------------------------------------|
G|-------------------7-------------------------------------------------------|
D|-4-----------------7--77777777777777---------------------------------------|
A|-4--44444444444444-5--55555555555555-X2------------------------------------|
E|-2--22222222222222---------------------------------------------------------|

Chorus 2

Gtr 1
e|-5---4--0--5---4--0---5-----4----0----5---4-0-----------------------------|
B|-5---5--7--5---5--7---5-----5----7----5---5--7-----------------------------|
G|---------------------------------------------------------------------------|
D|---------------------------------------------------------------------------|
A|---------------------------------------------------------------------------|
E|---------------------------------------------------------------------------|

Gtr 2
e|---------------------------------------------------------------------------|
B|---------------------------------------------------------------------------|
G|-4--444444-7--777777-11--111111111111-9--999999----------------------------|
D|-4--444444-7--777777-11--111111111111-9--999999----------------------------|
A|-2--222222-5--555555--9-9-9-9-9-9-9--7--777777----------------------------|
E|---------------------------------------------------------------------------|


Gtr 1
e|-5---4--0--5---4--0---5-----4----0-----------------------------------------|
B|-5---5--7--5---5--7---5-----5----7-----------------------------------------|
G|--------------------------------------9\-----------------------------------|
D|--------------------------------------9\-----------------------------------|
A|--------------------------------------7\-----------------------------------|
E|---------------------------------------------------------------------------|

Gtr 2
e|---------------------------------------------------------------------------|
B|---------------------------------------------------------------------------|
G|-4--444444-7--777777-11--111111111111-9\-----------------------------------|
D|-4--444444-7--777777-11--111111111111-9\-----------------------------------|
A|-2--222222-5--555555--9-9-9-9-9-9-9-7\-----------------------------------|
E|---------------------------------------------------------------------------|

Bridge

Gtr 1
e|-44555555-55555555-4-4-5-5-5-5-5-5--5-5-5-5-5-5-5-5------------------------|
B|-77777777-77777777-7-7-7-7-7-7-7-7--7-7-7-7-7-7-7-7--X3-------------------|
G|---------------------------------------------------------------------------|
D|---------------------------------------------------------------------------|
A|---------------------------------------------------------------------------|
E|---------------------------------------------------------------------------|
[ Tab from: http://www.guitartabs.cc/tabs/m/millencolin/afghan_tab_ver_2.html ]
Gtr 2
e|---------------------------------------------------------------------------|
B|---------------------------------------------------------------------------|
G|-77777777-77777777-1111111111111111-1111111111111111-----------------------|
D|-77777777-77777777-1111111111111111-1111111111111111-----------------------|
A|-55555555-55555555-9-9-9-9-9-9-9-9-9-9-9-9-9-9-9-9--X3-------------------|
E|---------------------------------------------------------------------------|




Gtr 1
e|---------------------------------------------------------------------------|
B|---------------------------------------------------------------------------|
G|-7--7--777-11--1111-11--1111--14--1414141413~~----------------------------|
D|---------------------------------------------------------------------------|
A|-5--5--555-9---9-9--9---9-9---12-12-12121211~~----------------------------|
E|---------------------------------------------------------------------------|


Gtr 2
e|---------------------------------------------------------------------------|
B|---------------------------------------------------------------------------|
G|-4--4--444-7---7-7--7---7-7---9---9-9-9-9-9-9--9\--------------------------|
D|-4--4--444-7---7-7--7---7-7---9---9-9-9-9-9-9--9\--------------------------|
A|-2--2--222-5---5-5--5---5-5---7---7-7-7-7-7-7--7\--------------------------|
E|---------------------------------------------------------------------------|

Guitar Solo

Gtr 1
e|---------------------------------------------------------------------------|
B|-10-9--7~-10-9--7~----3--3--3-3-5-3~---------------------------------------|
G|---------------------------------------------------------------------------|
D|---------------------------------------------------------------------------|
A|---------------------------------------------------------------------------|
E|---------------------------------------------------------------------------|

Gtr 2
e|---------------------------------------------------------------------------|
B|---------------------------------------------------------------------------|
G|--------------------7------------------------------------------------------|
D|-4------------------7-777777-77777777-------------------------------------|
A|-4-444444-44444444-5-555555-55555555-------------------------------------|
E|-2-222222-22222222--------------------------------------------------------|


Gtr 1
e|---------------------------------------------------------------------------|
B|-10-9--7~-10-9--7~----3--3--3-10-7-5~--------------------------------------|
G|---------------------------------------------------------------------------|
D|---------------------------------------------------------------------------|
A|---------------------------------------------------------------------------|
E|---------------------------------------------------------------------------|

Gtr 2
e|---------------------------------------------------------------------------|
B|---------------------------------------------------------------------------|
G|--------------------7------------------------------------------------------|
D|-4------------------7-777777-77777777-------------------------------------|
A|-4-444444-44444444-5-555555-55555555-------------------------------------|
E|-2-222222-22222222--------------------------------------------------------|

Chorus 3

Gtr 1
e|-5---4--0--5---4--0---5-----4----0----5---4-0-----------------------------|
B|-5---5--7--5---5--7---5-----5----7----5---5--7-----------------------------|
G|---------------------------------------------------------------------------|
D|---------------------------------------------------------------------------|
A|---------------------------------------------------------------------------|
E|---------------------------------------------------------------------------|

Gtr 2
e|---------------------------------------------------------------------------|
B|---------------------------------------------------------------------------|
G|-4--444444-7--777777-11--111111111111-9--999999----------------------------|
D|-4--444444-7--777777-11--111111111111-9--999999----------------------------|
A|-2--222222-5--555555--9-9-9-9-9-9-9--7--777777----------------------------|
E|---------------------------------------------------------------------------|


Gtr 1
e|-5---4--0--5---4--0---5-----4----0-----------------------------------------|
B|-5---5--7--5---5--7---5-----5----7-----------------------------------------|
G|--------------------------------------9--999999----------------------------|
D|--------------------------------------9--999999----------------------------|
A|--------------------------------------7--777777----------------------------|
E|---------------------------------------------------------------------------|

Gtr 2
e|---------------------------------------------------------------------------|
B|---------------------------------------------------------------------------|
G|-4--444444-7--777777-11--111111111111-9--999999----------------------------|
D|-4--444444-7--777777-11--111111111111-9--999999----------------------------|
A|-2--222222-5--555555--9-9-9-9-9-9-9-7--777777----------------------------|
E|---------------------------------------------------------------------------|

Chorus 3 Continued 

Gtr 1
e|-5---4--0--5---4--0---5-----4----0----5---4-0-----------------------------|
B|-5---5--7--5---5--7---5-----5----7----5---5--7-----------------------------|
G|---------------------------------------------------------------------------|
D|---------------------------------------------------------------------------|
A|---------------------------------------------------------------------------|
E|---------------------------------------------------------------------------|

Gtr 2
e|---------------------------------------------------------------------------|
B|---------------------------------------------------------------------------|
G|-4--444444-7--777777-11--111111111111-9--999999----------------------------|
D|-4--444444-7--777777-11--111111111111-9--999999----------------------------|
A|-2--222222-5--555555--9-9-9-9-9-9-9--7--777777----------------------------|
E|---------------------------------------------------------------------------|


Gtr 1
e|-5---4--0--5---4--0---5-----4----0-----------------------------------------|
B|-5---5--7--5---5--7---5-----5----7-----------------------------------------|
G|--------------------------------------9\-----------------------------------|
D|--------------------------------------9\-----------------------------------|
A|--------------------------------------7\-----------------------------------|
E|---------------------------------------------------------------------------|

Gtr 2
e|---------------------------------------------------------------------------|
B|---------------------------------------------------------------------------|
G|-4--444444-7--777777-11--111111111111-9\-----------------------------------|
D|-4--444444-7--777777-11--111111111111-9\-----------------------------------|
A|-2--222222-5--555555--9-9-9-9-9-9-9-7\-----------------------------------|
E|---------------------------------------------------------------------------|

Outro

Gtr 1
e|-44-44-555-444554-44-44-444-44--5--4---------------------------------------|
B|-77-77-777-777777-75-55-555-55--5--5---------------------------------------|
G|---------------------------------------------------------------------------|
D|---------------------------------------------------------------------------|
A|-------------------------------------X2------------------------------------|
E|---------------------------------------------------------------------------|

Gtr 2
e|---------------------------------------------------------------------------|
B|---------------------------------------------------------------------------|
G|------------------77-77-777-77--7--7---------------------------------------|
D|-44-44-444-444444-77-77-777-77--7--7---------------------------------------|
A|-44-44-444-444444-55-55-555-55--5--5-X2------------------------------------|
E|-22-22-222-222222----------------------------------------------------------|


Gtr 1
e|-44-44-555-444554-44-44-444-44--5--4---------------------------------------|
B|-77-77-777-777777-75-55-555-55--5--5---------------------------------------|
G|---------------------------------------------------------------------------|
D|---------------------------------------------------------------------------|
A|-------------------------------------X2------------------------------------|
E|---------------------------------------------------------------------------|

Gtr 2
e|---------------------------------------------------------------------------|
B|---------------------------------------------------------------------------|
G|------------------77-77-777-77--7--7---------------------------------------|
D|-44-44-444-444444-77-77-777-77--7--7---------------------------------------|
A|-44-44-444-444444-55-55-555-55--5--5-X2------------------------------------|
E|-22-22-222-222222----------------------------------------------------------|


Gtr 1
e|-5--555555-44444444-5------------------------------------------------------|
B|-7--777777-77777777-7------------------------------------------------------|
G|---------------------------------------------------------------------------|
D|---------------------------------------------------------------------------|
A|---------------------------------------------------------------------------|
E|---------------------------------------------------------------------------|

Gtr 2
e|---------------------------------------------------------------------------|
B|---------------------------------------------------------------------------|
G|-7--777777-77777777--------------------------------------------------------|
D|-7--777777-77777777-4------------------------------------------------------|
A|-5--555555-55555555-4------------------------------------------------------|
E|--------------------2------------------------------------------------------|


| /  slide up
| \  slide down
| h  hammer-on
| p  pull-off
| ~  vibrato
| +  harmonic
| x  Mute note
===============================================================================
Comments