Millencolin - Afghan Chords & Tabs

 

Afghan Chords & Tabs

Millencolin Chords & Tabs

Version: 1 Type: Bass Tab 0 ratings
1 star 2 stars 3 stars 4 stars 5 stars
comments

Afghan Bass Tab

   
-------------------------------------------------------------------------------
			     AFGHAN - Millencolin
-------------------------------------------------------------------------------

Tabbed By : Jolz
e-mail: Jolzton@hotmail.com

Here's the bass for Afghan, it mostly follows the rhythm guitar but there are slight
differences like in the bridge, Interlude and the pre-verse's.

Enjoy 

Tuning: Standard EADG

Intro

G|---------------------------------------------------------------------------|
D|---------------------------------------------------------------------------|
A|---------------0-2-0-5------------0-2-0------------------------5\----------|
E|-2~~~~----------------------------------2----------------------------------|

Pre-verse

G|---------------------------------------------------------------------------|
D|---------------------------------------------------------------------------|
A|---------------0205-55-555-555--020--X2------------------------------------|
E|-2--22-222-222-------------------------------------------------------------|

Verse

G|---------------------------------------------------------------------------|
D|---------------------------------------------------------------------------|
A|-------------------5--555555-55555555-X2----------------------------------|
E|-2--222222-22222222--------------------------------------------------------|

Chorus 1

G|---------------------------------------------------------------------------|
D|---------------------------------------------------------------------------|
A|-2--222222-5--555555-9--999999-7--777777-----------------------------------|
E|---------------------------------------------------------------------------|

G|---------------------------------------------------------------------------|
D|---------------------------------------------------------------------------|
A|-2--222222-5--555555-9--999999-7--xxxxxx-----------------------------------|
E|---------------------------------------------------------------------------|

Pre-verse

G|---------------------------------------------------------------------------|
D|---------------------------------------------------------------------------|
A|---------------0205-55-555-555--020--X2------------------------------------|
E|-2--22-222-222-------------------------------------------------------------|

Verse

G|---------------------------------------------------------------------------|
D|---------------------------------------------------------------------------|
A|-------------------5--555555-55555555-X2----------------------------------|
E|-2--222222-22222222--------------------------------------------------------|

Interlude

G|---------------------------------------------------------------------------|
D|---------------------------------------------------------------------------|
A|--------------------5--555555-44442222--X2---------------------------------|
E|-2--222222-55557777--------------------------------------------------------|

Chorus 2
[ Tab from: http://www.guitartabs.cc/tabs/m/millencolin/afghan_btab.html ]
G|---------------------------------------------------------------------------|
D|---------------------------------------------------------------------------|
A|-2--222222-5--555555-9--999999-7--777777-----------------------------------|
E|---------------------------------------------------------------------------|

G|---------------------------------------------------------------------------|
D|---------------------------------------------------------------------------|
A|-2--222222-5--555555-9--999999-7\------------------------------------------|
E|---------------------------------------------------------------------------|

Bridge

G|---------------------------------------------------------------------------|
D|---------------------------------------------------------------------------|
A|-55555555-55555555---------------------------------------------------------|
E|-------------------22222222-22222222-X3-----------------------------------|

G|---------------------------------------------------------------------------|
D|---------------------------------------------------------------------------|
A|-2--2--2225--55--5--55-7--777777-7-----5\----------------------------------|
E|---------------------------------------------------------------------------|

Guitar Solo

G|---------------------------------------------------------------------------|
D|---------------------------------------------------------------------------|
A|-------------------5--555555-55555555-X2----------------------------------|
E|-2--222222-22222222--------------------------------------------------------|

Chorus 3

G|---------------------------------------------------------------------------|
D|---------------------------------------------------------------------------|
A|-2--222222-5--555555-9--999999-7--777777-X3-------------------------------|
E|---------------------------------------------------------------------------|

G|---------------------------------------------------------------------------|
D|---------------------------------------------------------------------------|
A|-2--222222-5--555555-9--999999-7\------------------------------------------|
E|---------------------------------------------------------------------------|

Outro

G|---------------------------------------------------------------------------|
D|---------------------------------------------------------------------------|
A|---------------0205-55-555-555--020--X2------------------------------------|
E|-2--22-222-222-------------------------------------------------------------|

G|---------------------------------------------------------------------------|
D|---------------------------------------------------------------------------|
A|-------------------5--555555-55555555-X2----------------------------------|
E|-2--222222-22222222--------------------------------------------------------|

G|---------------------------------------------------------------------------|
D|---------------------------------------------------------------------------|
A|-5--555555-55555555--------------------------------------------------------|
E|--------------------2~~~---------------------------------------------------|

| /  slide up
| \  slide down
| h  hammer-on
| p  pull-off
| ~  vibrato
| +  harmonic
| x  Mute note
===============================================================================
Comments