Milky Chance - Stolen Dance Chords & Tabs

 

Stolen Dance Chords & Tabs

Milky Chance Chords & Tabs

Version: 1 Type: Bass Tab 0 ratings
1 star 2 stars 3 stars 4 stars 5 stars
comments

Stolen Dance Bass Tab

   
--------------------------------------
                             Stolen Dance - Milky Chance
--------------------------------------

Tabbed by: Edocsyl
E-mail: edocsyl@hotmail.de

Tuning: E / A / D / G

VERSE:
[ Tab from: http://www.guitartabs.cc/tabs/m/milky_chance/stolen_dance_btab.html ]
G|-------------------------------------|
D|------------------1--1---------------|
A|-------------2---1------2------------|
E|--4--42--20----------------4---------|

G|-------------------------------------|
D|------------------1--1---------------|
A|-------------2---2------2------------|
E|--4--42--20----------------4---------|


CHORUS:

G|-------------------------------------|
D|--2--24-------1--1-------------------|
A|---------2--4------2-----------------|
E|-----------------------4--42--20-----|


========================================
Comments