Miley Cyrus - See You Again Chords & Tabs

 

Miley Cyrus Chords & Tabs

Version: 1 Type: Tab 0 ratings
1 star 2 stars 3 stars 4 stars 5 stars
comments

See You Again Tab

   
i'm pretty sure this is 100% correct.
it's in standard tuning.

. = palm mute




Verse 1
E|--------------------------------------|    
B|--------------------------------------|         
G|--------------------------------------|       
D|-7-7-7-7-7-7-7-7----3-3-3-3-3-3-3-3---|       
A|-7-7-7-7-7-7-7-7-x6-3-3-3-3-3-3-3-3-x2|       
E|-5-5-5-5-5-5-5-5----1-1-1-1-1-1-1-1---|     
   . . . . . . . .    . . . . . . . .


E|--------------------------------------|
B|--------------------------------------|
G|-7-7-7-7-7-7-7-7----------------------|
D|-7-7-7-7-7-7-7-7-x2-7-7-7-7-7-7-7-7---|
A|-5-5-5-5-5-5-5-5----7-7-7-7-7-7-7-7-x2|
E|--------------------5-5-5-5-5-5-5-5---|
   . . . . . . . .    . . . . . . . .

E|--------------------------------------|
B|--------------------------------------|
G|--------------------------------------|
D|-3-3-3-3-3-3-3-3-2-2-2-2-2-2-2-2------| 
A|-3-3-3-3-3-3-3-3-2-2-2-2-2-2-2-2------|
E|-1-1-1-1-1-1-1-1-0-0-0-0-0-0-0-0------|
   . . . . . . . . . . . . . . . .

E|--------------------------------------|
B|--------------------------------------|
G|--------------------------------------|
D|-7-7-7-7-7-7-7-7----3-3-3-3-3-3-3-3---|
A|-7-7-7-7-7-7-7-7-x8-3-3-3-3-3-3-3-3-x2|
E|-5-5-5-5-5-5-5-5----1-1-1-1-1-1-1-1---|
   . . . . . . . .    . . . . . . . . 


E|--------------------------------------|
B|--------------------------------------|
G|-7-7-7-7-7-7-7-7----------------------|
D|-7-7-7-7-7-7-7-7-x2-7-7-7-7-7-7-7-7---|
A|-5-5-5-5-5-5-5-5----7-7-7-7-7-7-7-7-x2|
E|--------------------5-5-5-5-5-5-5-5---|
   . . . . . . . .    . . . . . . . .


E|--------------------------------------|
B|--------------------------------------|
G|--------------------------------------|
D|-3-3-3-3-3-3-3-3-2-2-2-2-2-2-2-2------| 
A|-3-3-3-3-3-3-3-3-2-2-2-2-2-2-2-2------|
E|-1-1-1-1-1-1-1-1-0-0-0-0-0-0-0-0------|
   . . . . . . . . . . . . . . . .

E|--------------------------------------|
B|--------------------------------------|
G|--------------------------------------|
D|-7-7-7-7-7-7-7-7-7-7-7-7-7-7-7-7------|
A|-7-7-7-7-7-7-7-7-7-7-7-7-7-7-7-7------|
E|-5-5-5-5-5-5-5-5-5-5-5-5-5-5-5-5------|
   . . . . . . . . . . . . . . . . 

Chorus
E|--------------------------------------|
B|--------------------------------------|
G|-----------------5-5-5-5-5-5-5-5------|
D|-3-3-3-3-3-3-3-3-5-5-5-5-5-5-5-5------| 
A|-3-3-3-3-3-3-3-3-3-3-3-3-3-3-3-3------|
E|-1-1-1-1-1-1-1-1----------------------|
     . . . . . . .   . . . . . . .           

E|--------------------------------------|
B|--------------------------------------|
G|--------------------------------------|
D|-5-5-5-5-5-5-5-5-5-5-5-5-5-5-5-5------| 
A|-5-5-5-5-5-5-5-5-5-5-5-5-5-5-5-5------|
E|-3-3-3-3-3-3-3-3-3-3-3-3-3-3-3-3------|
     . . . . . . . . . . . . . . .

E|--------------------------------------|
B|--------------------------------------|
G|-----------------5-5-5-5-5-5-5-5------|
D|-3-3-3-3-3-3-3-3-5-5-5-5-5-5-5-5------| 
A|-3-3-3-3-3-3-3-3-3-3-3-3-3-3-3-3------|
E|-1-1-1-1-1-1-1-1----------------------|
     . . . . . . .   . . . . . . .           

E|--------------------------------------|
B|--------------------------------------|
G|--------------------------------------|
D|-5-5-5-5-5-5-5-5-5-5-5-5-5-5-5-5------| 
A|-5-5-5-5-5-5-5-5-5-5-5-5-5-5-5-5------|
E|-3-3-3-3-3-3-3-3-3-3-3-3-3-3-3-3------|
     . . . . . . . . . . . . . . .
[ Tab from: http://www.guitartabs.cc/tabs/m/miley_cyrus/see_you_again_tab.html ]
E|--------------------------------------|
B|--------------------------------------|
G|--------------------------------------|
D|-3-3-3-3-3-3-3-3-7-7-7-7-7-7-7-7------| 
A|-3-3-3-3-3-3-3-3-7-7-7-7-7-7-7-7------|
E|-1-1-1-1-1-1-1-1-5-5-5-5-5-5-5-5------|
     . . . . . . .   . . . . . . .

E|-----------------|
B|-----------------|
G|-5-5-5-5-5-5-5-5-|
D|-5-5-5-5-5-5-5-5-| 
A|-3-3-3-3-3-3-3-3-|
E|-----------------|
     . . . . . . .

E|-----------------|
B|-----------------|
G|-----------------|
D|-3-3-3-3-3-3-3-3-| x2
A|-3-3-3-3-3-3-3-3-|
E|-1-1-1-1-1-1-1-1-|
     . . . . . . .

E|-----------------|
B|-----------------|
G|-----------------|
D|-2---------------| 
A|-2---------------|
E|-0---------------|
   
Verse 2 (same thing as the first verse except it's a litte shorter) 
Chorus 2 (same as chorus 1)


Play until bridge
E|--------------------------------------|
B|--------------------------------------|
G|--------------------------------------|
D|-7-7-7-7-7-7-7-7-7-7-7-7-7-7-7-7------| 
A|-7-7-7-7-7-7-7-7-7-7-7-7-7-7-7-7------|
E|-5-5-5-5-5-5-5-5-5-5-5-5-5-5-5-5------|
   . . . . . . . . . . . . . . . .

Bridge x2
E|--------------------------------------|
B|--------------------------------------|
G|--------------------------------------|
D|--------------------------------------| 
A|-3-3-2-2--------3-3-2-2---------------|
E|--------3-5-5-5---------3-5-5-5-------|
   
Chorus 3
E|-----------------|
B|-----------------|
G|----5------------|
D|-3--5--5--5------| 
A|-3--3--5--5------|
E|-1-----3--3------|

E|--------------------------------------|
B|--------------------------------------|
G|-----------------5-5-5-5-5-5-5-5------|
D|-3-3-3-3-3-3-3-3-5-5-5-5-5-5-5-5------| 
A|-3-3-3-3-3-3-3-3-3-3-3-3-3-3-3-3------|
E|-1-1-1-1-1-1-1-1----------------------|
     . . . . . . .   . . . . . . .           

E|--------------------------------------|
B|--------------------------------------|
G|--------------------------------------|
D|-5-5-5-5-5-5-5-5-5-5-5-5-5-5-5-5------| 
A|-5-5-5-5-5-5-5-5-5-5-5-5-5-5-5-5------|
E|-3-3-3-3-3-3-3-3-3-3-3-3-3-3-3-3------|
     . . . . . . . . . . . . . . .

E|--------------------------------------|
B|--------------------------------------|
G|--------------------------------------|
D|-3-3-3-3-3-3-3-3-7-7-7-7-7-7-7-7------| 
A|-3-3-3-3-3-3-3-3-7-7-7-7-7-7-7-7------|
E|-1-1-1-1-1-1-1-1-5-5-5-5-5-5-5-5------|
     . . . . . . .   . . . . . . .

E|-----------------|
B|-----------------|
G|-5-5-5-5-5-5-5-5-|
D|-5-5-5-5-5-5-5-5-| 
A|-3-3-3-3-3-3-3-3-|
E|-----------------|
     . . . . . . .

E|-----------------|
B|-----------------|
G|-----------------|
D|-3-3-3-3-3-3-3-3-| x2
A|-3-3-3-3-3-3-3-3-|
E|-1-1-1-1-1-1-1-1-|
     . . . . . . .

E|-----------------|
B|-----------------|
G|-----------------|
D|-2-2-2-2-2-2-2-2-| 
A|-2-2-2-2-2-2-2-2-|
E|-0-0-0-0-0-0-0-0-|
  
E|-----------------|
B|-----------------|
G|-----------------|
D|-7-7-7-7-7-7-7-7-| x2
A|-7-7-7-7-7-7-7-7-|
E|-5-5-5-5-5-5-5-5-|
   . . . . . . . .  

E|-----------------|
B|-----------------|
G|-----------------|
D|-3----------2----| 
A|-3----------0----|
E|-1----------0----|
let it ring   cut off quickly

E|-----------------|
B|-----------------|
G|-----------------|
D|-7-7-7-7-7-7-7-7-| x3
A|-7-7-7-7-7-7-7-7-|
E|-5-5-5-5-5-5-5-5-|
   . . . . . . . .  

The part that goes on during the palm muting
E|-----------------|
B|-----------------|
G|-----------------|
D|-----------------| 
A|-3---2-----------|
E|---0---0-5-------|
   

end on
E|-5---------------|
B|-5---------------|
G|-5---------------|
D|-7---------------| 
A|-7---------------|
E|-5---------------|
Comments