Miley Cyrus - Good And Broken Chords & Tabs

 

Miley Cyrus Chords & Tabs

Version: 1 Type: Tab 0 ratings
1 star 2 stars 3 stars 4 stars 5 stars
comments

Good And Broken Tab

----------------------------------------------------------------------------
		    Good and Broken - Miley Cyrus
----------------------------------------------------------------------------
Tabbed by:Me
Email:I have one :]
Note:im not to sure on the verses. If you have corrections let me know and if they sound 
I will update them :]
Tuning:Standard

  intro
e|-----------------------|
B|-----------------------|
G|-----------------------|
D|-777-777-777-777-7777--|
A|-455-455-455-455-4555--|
E|-----------------------|

Are you overloaded, Candycoated.......
e|-------------------------------------------------------------------------|
B|-------------------------------------------------------------------------|
G|-------------------------------------------------------------------------|
D|-7777777777777777-7777777777777777-7777777777777777-7777777777777777-----|
A|-4444444444444444-5555555555555555-4444444444444444-0000000000000000-----|
E|-------------------------------------------------------------------------|

  We can let go, dont hold.........
e|-------------------------------------------------------------------------|
B|-------------------------------------------------------------------------|
G|-------------------------------------------------------------------------|
D|-7777777777777777-7777777777777777-7777777777777777-7777777777777777-----|
A|-4444444444444444-5555555555555555-4444444444444444-0000000000000000-----|
E|-------------------------------------------------------------------------|

  We can, we can.......
e|------------------------------|
B|------------------------------|
G|-555555-777777----------------|
D|-555555-777777-777777-555555--|[3x]
A|-333333-555555-777777-555555--|
E|---------------555555-333333--|
[ Tab from: http://www.guitartabs.cc/tabs/m/miley_cyrus/good_and_broken_tab.html ]
  Find the magic, go and grab it.....
e|-------------------------------------------------------------------------|
B|-------------------------------------------------------------------------|
G|-------------------------------------------------------------------------|
D|-7777777777777777-7777777777777777-7777777777777777-7777777777777777-----|
A|-4444444444444444-5555555555555555-4444444444444444-0000000000000000-----|
E|-------------------------------------------------------------------------|

  We can, we can.......
e|------------------------------|
B|------------------------------|
G|-555555-777777----------------|
D|-555555-777777-777777-555555--|[3x]
A|-333333-555555-777777-555555--|
E|---------------555555-333333--|

  Solo 11's and 13's
e|-------------------------------------------------------------------------|
B|-111313131311--------111313131311--------111313131311--------------------|
G|--------------989898--------------989898--------------9864-141311,8,11---|
D|-------------------------------------------------------------------------|
A|-------------------------------------------------------------------------|
E|-------------------------------------------------------------------------|

Get off you seat, on your feet....
e|------------------------------|
B|------------------------------|
G|-555555-777777----------------|
D|-555555-777777-777777-555555--|[2x]
A|-333333-555555-777777-555555--|
E|---------------555555-333333--|
   ...... ...... ...... ......

  We can, we can.......
e|-------------------------|
B|-------------------------|
G|-5-----7-----------------|
D|-5-----7------7-------5--|
A|-3-----5------7-------5--|
E|--------------5-------3--|

 We can, we can.......
e|------------------------------|
B|------------------------------|
G|-555555-777777----------------|
D|-555555-777777-777777-555555--|[6x]
A|-333333-555555-777777-555555--|
E|---------------555555-333333--|

 the good and broken
e|--------------------|
B|--------------------|
G|--------------5~~---|
D|-55-55-55-555-5~~---|
A|-55-55-55-555-3~~---|
E|-33-33-33-333-------|
Comments