Miley Cyrus - Adore You Chords & Tabs

 

Adore You Chords & Tabs

Miley Cyrus Chords & Tabs

Version: 1 Type: Bass Tab 0 ratings
1 star 2 stars 3 stars 4 stars 5 stars
comments

Adore You Bass Tab

   
-------------------------------------------------------------------------------
                                                 Adore You - Miley Cyrus 
-------------------------------------------------------------------------------


Tabbed by: David Parfett 
E-mail: dbparfett@gmail.com
Tuning: E A D G 


Intro/Verse  0:00

                                               x8
G|--------------------------------------------|
D|--------------------------------------------|
A|-3-(ring)--------------------------0-(ring)-|
E|---------------------1-(ring)---------------|


Chorus  1:04

                                    x2
G|---------------------------------|
D|---------------------------------|
A|-3---3---3---3-----------0---0---|
E|-----------------1---1-----------|
                                    x2
G|---------------------------------|
D|---------------------------------|
A|-3-3-3-3-3-3-3-3---------0-0-0-0-|
E|-----------------1-1-1-1---------|


Verse  1:36

                                               x6
G|--------------------------------------------|
D|--------------------------------------------|
A|-3-(ring)--------------------------0-(ring)-|
E|---------------------1-(ring)---------------|


Chorus  2:24
[ Tab from: http://www.guitartabs.cc/tabs/m/miley_cyrus/adore_you_btab.html ]
                                    x2
G|---------------------------------|
D|---------------------------------|
A|-3---3---3---3-----------0---0---|
E|-----------------1---1-----------|
                                    x2
G|---------------------------------|
D|---------------------------------|
A|-3-3-3-3-3-3-3-3---------0-0-0-0-|
E|-----------------1-1-1-1---------|


Bridge  2:57


G|----------------------------------------------------------------|
D|----------------------------------------------------------------|
A|-0-0-0-0-0-0-0-0---------3-3-3-3-0-0-0-0-0-0-0-0----3-3-3-3-3-3-|
E|-----------------1-1-1-1-------------------------1-1------------|

G|-----------------------------------------------------------------|
D|-----------------------------------------------------------------|
A|---------0-0-3-3-----0-0-3-3-----------------0-0---------3-3-3-3-|
E|-1-1-1-1---------1-1---------1-1-1-1-1-1-1-1-----1-1-1-1---------|


No Bass 3:28


Chorus 3:44

                                    x2
G|---------------------------------|
D|---------------------------------|
A|-3---3---3---3-----------0---0---|
E|-----------------1---1-----------|
                                    x4
G|---------------------------------|
D|---------------------------------|
A|-3-3-3-3-3-3-3-3---------0-0-0-0-|
E|-----------------1-1-1-1---------|


Ending Note

                   
G|----------|
D|----------|
A|-3-(ring)-|
E|----------|
                                   

===============================================================================
Comments