Miles Kane - Don't Forget Who You Are Chords & Tabs

 

Miles Kane Chords & Tabs

Version: 1 Type: Tab 0 ratings
1 star 2 stars 3 stars 4 stars 5 stars
comments

Don't Forget Who You Are Tab

Don't Forget Who You Are - Miles Kane

Learnt all from ear and watching videos but am sure it's 100% accurate to the studio 
version. Listen to song for strumming pattern.

E-----------------------------------|
B-----------------------------------|
G-----------------------------------|
D-----5-----------------------------|
A-----5-----------------------------|(Repeated through intro)
E-----3-----------------------------|

Verse 1

( "The finest clothes...")

E-----------------------------------|
B-----------------------------------|
G-----------------------------------|
D-----5-----------------------------|(Same as in the intro)
A-----5-----------------------------|
E-----3-----------------------------|

("Dressed in my coat...)
E--------3--------------------------|
B--------5--------------------------|
G--------5--------------------------|
D--------5--------------------------|(x8)
A--------3--------------------------|
E-----------------------------------|

("I'm feeling fine...)

E---------1--------------------------|
B---------3--------------------------|
G---------3--------------------------|(x8)
D---------3--------------------------|
A---------1--------------------------|
E------------------------------------|


("I wanna shine...)

E-----------------------------------|
B-----------------------------------|
G-----------------------------------|
D-------5---------------------------|(same as at the beginning of the verse)
A-------5---------------------------|
E-------3---------------------------|


Same pattern of tabs repeated twice, then chorus.

Chorus

("When we're tongue tied and breathless")

E---------6-------------------------|
B---------8-------------------------|
G---------8-------------------------|
D---------8-------------------------|(downward strumming x8)
A---------6-------------------------|
E-----------------------------------|


("We won't let our worries...")

E---------6-------------------------|
B---------6-------------------------|
G---------7-------------------------|
D---------8-------------------------|(downward strumming x8)
A---------8-------------------------|
E---------6-------------------------|

("Dictate who we are...")
[ Tab from: http://www.guitartabs.cc/tabs/m/miles_kane/dont_forget_who_you_are_tab.html ]
E---------8-------------------------|
B---------10------------------------|
G---------10------------------------|(downward strumming x16)
D---------10------------------------|
A---------8-------------------------|
E-----------------------------------|


Repeated for whole chorus, including the "la la las". Last "la la la" chord is strummed 
8 times instead of 16, and then plays the first chord of the chorus 4 times.



Verse 2 ( same as verse 1)







Chorus 2 (same as chorus 1)





Bridge

(...Darling)

E---------3-------------------------|
B---------5-------------------------|
G---------5-------------------------|
D---------5-------------------------|(downward strumming x8)
A---------3-------------------------|
E-----------------------------------|

(Close your eyes)

E---------5-------------------------|
B---------6-------------------------|
G---------7-------------------------|
D---------7-------------------------|(downward strumming x8)
A---------5-------------------------|
E-----------------------------------|


("And wish for more")

E-----------------------------------|
B-----------------------------------|
G-----------------------------------|
D---------7-------------------------|(downward strumming x8)
A---------7-------------------------|
E---------5-------------------------|

("Weighing our dreams")

E-----------------------------------|
B-----------------------------------|
G-----------------------------------|
D---------8-------------------------|(downward strumming x8)
A---------8-------------------------|
E---------6-------------------------|

("Till we're ready")

E-----------------------------------|
B-----------------------------------|
G-----------------------------------|
D---------3-------------------------|(downward strumming x4)
A---------3-------------------------|
E---------1-------------------------|

("For more..."

E---------3-------------------------|
B---------5-------------------------|
G---------5-------------------------|
D---------5-------------------------|(downward strumming x16)
A---------3-------------------------|
E-----------------------------------|


Solo

"When we're tongue tied and breathless)

E------------------------------------------------|
B------------------------------------------------|
G----0----0-2-3-----8-7-5-2-----2-0h2-3--2--0----|(x2)
D------------------------------------------------|
A------------------------------------------------|
E------------------------------------------------|


Final Chorus

"La la la..."

Same as chorus 1 and chord pattern repeated till end.
Comments