Miles Davis - So What Chords & Tabs

 

So What Chords & Tabs

Miles Davis Chords & Tabs

Version: 1 Type: Bass Tab 0 ratings
1 star 2 stars 3 stars 4 stars 5 stars
comments

So What Bass Tab

   
Riff A Part 1

E--0-5-7-8-----8----|
A----------5-7---5--|
D-------------------|
G-------------------|

Riff A Part 2

E--0-5-7-8-----8---5-|
A----------5-7---5---|
D--------------------|
G--------------------|

Riff A Part 3

E--6/7--6/7-6/7---5-|
A---------------5---|
D-------------------|
G-------------------|

Riff B Part 1

E--1----------------|
A----1-3-4-----4----|
D----------1-3---1--|
G-------------------|

Riff B Part 2
[ Tab from: http://www.guitartabs.cc/tabs/m/miles_davis/so_what_btab.html ]
E--1-----------------|
A----1-3-4-----4---1-|
D----------1-3---1---|
G--------------------|


Order of Apearance

Intro (Not Usually Played)

Part A 1 x1
Part A 2 x1
Part A 1 x1
Part A 3 x1

Part A 1 x1
Part A 2 x1
Part A 1 x1
Part A 3 x1

Part B 1 x1
Part B 2 x1
Part B 1 x1
Part B 2 x1

Part A 1 x1
Part A 2 x1
Part A 1 x1
Part A 3 x1

Solos

There you have it.  Simple as pie.
Comments