Miles Davis - Boblicity Chords & Tabs

 

Boblicity Chords & Tabs

Miles Davis Chords & Tabs

Version: 1 Type: Tab 0 ratings
1 star 2 stars 3 stars 4 stars 5 stars
comments

Boblicity Tab

   
#----------------------------------PLEASE NOTE---------------------------------#
#This file is the author's own work and represents their interpretation of the #
#song. You may only use this file for private study, scholarship, or research. #
#------------------------------------------------------------------------------##

Composer: Cleo Henry
Album: Birth of the Cool
Tab By: MIke Sarafinas

Gtr I (E A D G B E) 

    Q=135(8=s8)
   4/4                           |-3-|
    E Q  E +E  E E E   Q Q Q Q E E   +Q   E E +E  E E E   E S S E E +Q  E E
||-------------------|-------------|--------------------|-------------------|
||o------------------|-------------|--------------------|-------------------|
||-------5-(5)-2-----|-------2-----|------2---------2-5-|-7-------6-(6)-----|
||----3------------3-|-5-3-5-------|--------2-(2)-3-----|---8-5-----------7-|
||o-5----------------|-----------3-|-(3)----------------|-------6-----------|
||-------------------|-------------|--------------------|-------------------|


      |-3-|
  E E E E E E E E E   E E E E E E E E
|-------------------|-----------------|
|-------------------|-----------------|
|-5-----5-----------|-----------------|
|---7-8---8-7-------|-------7-------7-|
|-------------8-5---|-8---8---8---8---|
|-----------------8-|-----------------|


                              1.
                 |-3-|
  E E  E  E  +E  S S S +E  E   +H.        Q
|----------------------------|-----------------||
|----------------------------|----------------o||
|--------10-(10)-8-7-5-(5)-4-|-(4)-------------||
|---7-10---------------------|-----------------||
|-8--------------------------|----------------o||
|----------------------------|-----------------||


  2.
                                        |-3-|
  +H.     E E   E S S E E +Q  E E   +Q  E E E Q  E E   E Q  E +E  E E E
|-------------|-------------------|------------------|-------------------|
|-------------|-------------------|------------------|-------------------|
|-(4)---------|-7-------6-(6)---7-|-(7)-------6------|-5-5--5-(5)--------|
|-----------8-|---8-5-------------|-----8-5--------7-|------------8-7-5--|
|-------------|-------6-----------|---------6--------|-------------------|
|-------------|-------------------|------------------|-------------------|


                                            |-3-|
  E E E E E E E E   E S S E E +Q  E E   +Q  E E E Q  E E   E Q  E +E  E E E
|-----------------|-------------------|------------------|------------------|
|-----------------|-------------------|------------------|------------------|
|-----------------|-5-------4-(4)---5-|-(5)-------4------|-3-3--3-(3)-------|
|-3-2-------3-5-3-|---6-3-------------|-----6-3--------5-|------------6-4---|
|-----3-4-5-------|-------4-----------|---------4--------|----------------6-|
|-----------------|-------------------|------------------|------------------|

[ Tab from: http://www.guitartabs.cc/tabs/m/miles_davis/boblicity_tab.html ]
                                       |-3-|
  E E E E +Q   Q    E Q  E +E  E E E   Q Q Q Q  E E   +Q   E E +E  E E E
|-----------------|------------------|--------------|---------------------|
|-----------------|------------------|--------------|---------------------|
|-2-3-5-2-(2)-----|------5-(5)-2-----|-------2------|------2---------2-5--|
|-----------------|---3------------3-|-5-3-5--------|--------2-(2)-3------|
|-----------------|-5----------------|------------3-|-(3)-----------------|
|-----------------|------------------|--------------|---------------------|


                           |-3-|
  E S S E E +Q   E E   E E E E E E E E E
|--------------------|-------------------|
|--------------------|-------------------|
|-7-------6-(6)------|-5-----5-----------|
|---8-5------------7-|---7-8---8-7-------|
|-------6------------|-------------8-5---|
|--------------------|-----------------8-|


                                   |-3-|
  E E E E E E E E   E E  E  E  +E  S S S +E  E
|-----------------|----------------------------|
|-----------------|----------------------------|
|-----------------|--------10-(10)-8-7-5-(5)-4-|
|-------7-------7-|---7-10---------------------|
|-8---8---8---8---|-8--------------------------|
|-----------------|----------------------------|


  +H.      Q
|---------------*|
|---------------*|
|-(4)-----------*|
|---------------*|
|---------------*|
|---------------*|


Duration Legend
---------------
W - whole; H - half; Q - quarter; E - 8th; S - 16th; T - 32nd; X - 64th; a - acciaccatura
+ - note tied to previous; . - note dotted; .. - note double dotted
Uncapitalized letters represent notes that are staccato (1/2 duration)
Irregular groupings are notated above the duration line
Duration letters will always appear directly above the note/fret number it represents the
duration for.  Duration letters with no fret number below them represent rests.  Multi-
bar rests are notated in the form Wxn, where n is the number of bars to rest for.  Low
melody durations appear below the staff

Tablature Legend
----------------
 h   - hammer-on
 p   - pull-off
 b   - bend
 pb  - pre-bend
 r   - bend release (if no number after the r, then release immediately)
 /\  - slide into or out of (from/to "nowhere")
 s   - legato slide
 S   - shift slide
  - natural harmonic
[n]  - artificial harmonic
n(n) - tapped harmonic
 ~   - vibrato
 tr  - trill
 T   - tap
 TP  - trem. picking
 PM  - palm muting
\n/  - tremolo bar dip; n = amount to dip
 \n  - tremolo bar down
 n/  - tremolo bar up
/n\  - tremolo bar inverted dip
 =   - hold bend; also acts as connecting device for hammers/pulls
   - volume swell (louder/softer)
 x   - on rhythm slash represents muted slash
 o   - on rhythm slash represents single note slash

Misc Legend
-----------
 |  - bar
||  - double bar
||o - repeat start
o|| - repeat end
*|  - double bar (ending)
 :  - bar (freetime)
 $  - Segno
 &  - Coda
Tempo markers -  = BPM(8/16=s8/s16), where s8 = swing 8ths, s16 = swing 16ths


***************************************************************************************
* Generated using Power Tab Editor by Brad Larsen - http://powertab.guitarnetwork.org *
***************************************************************************************
Comments