Milemarker - Tundra Chords & Tabs

 

Tundra Chords & Tabs

Milemarker Chords & Tabs

Version: 1 Type: Bass Tab 0 ratings
1 star 2 stars 3 stars 4 stars 5 stars
comments

Tundra Bass Tab

band	: milemarker
song	: tundra
album	: frigid forms sell you warmth
tabbed by: matt ross (apollyon365@home.com)

D:-----------------|
A:-----------------|
A:---------2222233-|
E:-555-111---------|

:21
G:--------------------------|
D:--------------------------|
A:---------------------2233-|
E:-5555-1111-5555-1111------|

:33
G:-----------------------------|------------------------------|
D:----------------------3h2----|------------------------------|
A:-------------33333-22----3h2-|-------------33333-22-3h2-5h3-|
E:-55555-11111-----------------|-55555-11111------------------|
[ Tab from: http://www.guitartabs.cc/tabs/m/milemarker/tundra_btab.html ]
G:-----------------------------|------------------------------|
D:-----------------------------|------------------------------|
A:-------------33333-22----3h2-|-------------33333-22-3h2-5h3-|
E:-55555-11111----------2h3----|-55555-11111------------------|

that's not exactly what they play but it fits well and sounds good
 
:58
D:-----------------|
A:-----------------|
A:---------2222233-|
E:-555-111---------|
 
1:20
G:--------------------------|
D:--------------------------|
A:---------------------2233-|
E:-5555-5555-5555-5111------|

1:55
G:-----------------------------|------------------------------|
D:----------------------3h2----|------------------------------|
A:-------------33333-22----3h2-|-------------33333-22-3h2-5h3-|
E:-55555-11111-----------------|-55555-11111------------------|

G:-----------------------------|------------------------------|
D:-----------------------------|------------------------------|
A:-------------33333-22----3h2-|-------------33333-22-3h2-5h3-|
E:-55555-11111----------2h3----|-55555-11111------------------|
...LAAAAAAY IN IT

Comments