Mile 452 - Party Song Chords & Tabs

 

Party Song Chords & Tabs

Mile 452 Chords & Tabs

Version: 1 Type: Bass Tab 0 ratings
1 star 2 stars 3 stars 4 stars 5 stars
comments

Party Song Bass Tab

Mile 452 
PARTY SONG
 
Intro
 
G--------------------------------------------------------------------
D--------------------------------------------------------------------
A----------------5-5-5-5-5---------------3-3-3-3-3------------
E--3-3-3-3-3---------------0-0-0-0-0--------------------------
 
Verse
 
G--------------------------------------------------------------------
D--------------------------------------------------------------------
A-------------5-5-5-5---------------3-3-3-3--------------------
E--3-3-3-3---------------0-0-0-0-------------------------------
 
Chorus
 
G-------------------------------------------------------------------
D-------------------------------------------------------------------
A--------------------------5-5-5-5-5-5-5-5--------------------
E--3-3-3-3--0-0-0-0-------------------------------------------
 
Prelude
 
G-----------------------------------------------------------------------------
D-----------------------------------------------------------------------------
A------------------------------------------------5-5-5-5-5-5-5-5-5-5-5-5-5-5--
E--5-5-5-5-5-5-5-5--3-3-3-3-3-3-3-3-----------------------------------------
 
Song Order
Intro x2
Verse x4
Chorus x4
Intro x2
Verse x4
Prelude x4
Chorus x4
Intro x2


[ Tab from: http://www.guitartabs.cc/tabs/m/mile_452/party_song_btab.html ]
Comments