Mikey J - Disorderly Mass Chords & Tabs

 

Disorderly Mass Chords & Tabs

Mikey J Chords & Tabs

Version: 1 Type: Tab 0 ratings
1 star 2 stars 3 stars 4 stars 5 stars
comments

Disorderly Mass Tab

Standard Tuning


[ Tab from: http://www.guitartabs.cc/tabs/m/mikey_j/disorderly_mass_tab.html ]
		Chorus
|---------------------------------------
|---------------------------------------
|---------------------------------------	4times
|---------------------------------------
|7-777-x-9-999-x-10-10-10-10-x-5-555----
|5-555-x-7-777-x--0--0-0--0--x-3-333----


		Verse
|--------------------------------------
|--------------------------------------
|--------------------------------------
|--5-6-5---6-5-6------6-5-6---5-6-5----		5times
|-7------7----------7-------7----------
|0----------------0--------------------
Comments