Mike Oldfield - Tubular Bells Chords & Tabs

 

Tubular Bells Chords & Tabs

Mike Oldfield Chords & Tabs

Version: 2 Type: Tab 0 ratings
1 star 2 stars 3 stars 4 stars 5 stars
comments

Tubular Bells Tab

   
this tab is for both the bass and the guitar as long as you can pick fast it shouldn't 
a problem this is my second tab please rate it high thanks to emma for lending me her house!

Tuning: standard (E,A,D,G,[B,E])
[ Tab from: http://www.guitartabs.cc/tabs/m/mike_oldfield/tubular_bells_tab_ver_2.html ]
Guitar:
E|------------------------------------------------|
A|------------------------------------------------|
D|------------------------------------------------|
G|------------------------------------------------|
B|------------------------------------------------|
E|-0-5-0-7-0-3-5-0-8-0-10-0-7-8-(0-8)-------------|

the part which is not bracketed is played first then the second time around you add the 
notes i just play the bracketed notes all the time as my band has re-mixed it.

Bass:
E|------------------3-3----------3---------------|
A|-0-0--0-2-3---5----------5-3-2-----------------|
D|------------2---5------5-----------------------|
G|-----------------------------------------------|


This was a joint effort with my mate emma and this was her first tab so i hope its up to 
standards and you use it.
Comments