Mike Oldfield - No Mans Land Reprise Chords & Tabs

 

No Mans Land Reprise Chords & Tabs

Mike Oldfield Chords & Tabs

Version: 1 Type: Tab 0 ratings
1 star 2 stars 3 stars 4 stars 5 stars
comments

No Mans Land Reprise Tab

   
Tr3s Lunas - No mans land (reprise)

SPANISH GUITAR

h = hammer-on

e----------------------------------------------------------------------------------5-7-------------
B-------------------------------------------------------------------------0-4-5-7------------------
G--------------------------------------------------------------------------------------------------
D-----2---2-5-4-----4-2-------2-1----------------2-4-----4-5------0h2--4---------------------------
A-2-5---2-------2-5-------3-5-----2-------2-3-3-5-----0-0-----3-3----------------------------------
E-----------------------3---------------3----------------------------------------------------------
[ Tab from: http://www.guitartabs.cc/tabs/m/mike_oldfield/no_mans_land_reprise_tab.html ]
e-----7-10--10-8-7----7----------------------------------------10-14-12----12----12-14-15-14----14-15-17-19----
B---8--------------10---8------7-8-10--------7-8----------7-10----------15-------------------------------------
G-9--------------------------9--------8----9----------7-9------------------------------------------------------
D------------------------------------------------10------------------------------------------------------------
A--------------------------------------------------------------------------------------------------------------
E--------------------------------------------------------------------------------------------------------------

My first tab from new Mike's album, beautiful song, enjoy it!!!!

Dedicated to an angel who takes good care of me.
I'll take good care of you.
(I dream of a beach...)

Seville (Spain) 
28/6/02
Comments