Mike Oldfield - In Dulci Jubilo Chords & Tabs

 

In Dulci Jubilo Chords & Tabs

Mike Oldfield Chords & Tabs

Version: 1 Type: Tab 0 ratings
1 star 2 stars 3 stars 4 stars 5 stars
comments

In Dulci Jubilo Tab

In Dulci Jubilo -J.S.Bach
Guitar solo from Mike Oldfield version.
Tabbed by: merlinblencowe@hotmail.com

NB: This solo requires a guitar with 22 frets, such as a Gibson type. Fender type 
may not have enough frets.

--15-h-17-p-15-h-17-p-15-h-17-p-15-h-17-p-15-h-17-p-15-h-17-p-15-|
-TRILL-----------------------------------------------------------|
-----------------------------------------------------------------|
-----------------------------------------------------------------|
-----------------------------------------------------------------|
-----------------------------------------------------------------|

-15--15--13-12-----------15-13-12-13-15-------------12---10---12-|
----------------13------------------------13---------------------|
--------------------12------------------------12-----------------|
-----------------------------------------------------------------|
-----------------------------------------------------------------|
-----------------------------------------------------------------|

------------15-13-12---13-12-13------15-13-12-13-15-----------|
--13-12-10-----------------------15------------------13-12-13-|
--------------------------------------------------------------|
--------------------------------------------------------------|
--------------------------------------------------------------|
--------------------------------------------------------------|

-----------------------------------12--15--13--12----13-12-13-|
---------------------12--13--15-------------------------------|
-14p12------12--14--------------------------------------------|
--------15----------------------------------------------------|
--------------------------------------------------------------|
--------------------------------------------------------------|

-----15-13-12-13-15--------------------------------------|
-15------------------13-12-13-------------------12-13-15-|
-------------------------------14p12------12-14----------|
---------------------------------------15----------------|
---------------------------------------------------------|
---------------------------------------------------------|

--12-15-13-12--13h12p13-----------------------12-----|
---------------------------15--13--12--13h15------13-|
-----------------------------------------------------|
-----------------------------------------------------|
-----------------------------------------------------|
-----------------------------------------------------|

[ Tab from: http://www.guitartabs.cc/tabs/m/mike_oldfield/in_dulci_jubilo_tab.html ]
-----12----12-------20-----20----22--22b(24)--20-22b(24)--20-|
-/13----13------/20----20-------------------------------------|
gliss-----------gliss-----------------------------------------|
--------------------------------------------------------------|
--------------------------------------------------------------|
--------------------------------------------------------------|

----20---------------------------------------------------------12----|
-22----20-\-17-15-17--13h15p13-12h13p12-----------12h13h15-13--------|
----------------------------------------14h16h17------------------12-|
---------------------------------------------------------------------|
---------------------------------------------------------------------|
---------------------------------------------------------------------|

------------------------------12--15--13--12----13-12-13-|
-13-----------------12-13-15-----------------------------|
----14p12----12-14---------------------------------------|
----------15---------------------------------------------|
---------------------------------------------------------|
---------------------------------------------------------|

-----15-13-12-13-15--------------------------------------|
-15------------------13-12-13-------------------12-13-15-|
-------------------------------14p12------12-14----------|
---------------------------------------15----------------|
---------------------------------------------------------|
---------------------------------------------------------|

--12-15-13-12--13h12p13-----------------12----|
---------------------------15-13-12-13-----13-|
----------------------------------------------|
----------------------------------------------|
----------------------------------------------|
----------------------------------------------|


-----12----12-------20-----20----22--22b(24)--20-22b(24)--20-|
-/13----13------/20----20-------------------------------------|
gliss-----------gliss-----------------------------------------|
--------------------------------------------------------------|
--------------------------------------------------------------|
--------------------------------------------------------------|

----20-----------------------------------------------------|
-22----20-\-17h18h20--15-17--13h15h13--12h13h12--12h13h12--|
-----------------------------------------------------------|
-----------------------------------------------------------|
-----------------------------------------------------------|
-----------------------------------------------------------|

----------------------------15-15-13h15p13-----15-13p12--13----12-|
-12h13h12----12-13-12-13-15----------------15---------------15----|
----------14------------------------------------------------------|
------------------------------------------------------------------|
------------------------------------------------------------------|
------------------------------------------------------------------|

-----------15-13-12---------|
10--12--13----------15-13-8-|
----------------------------|
----------------------------|
----------------------------|
----------------------------|
Final part is simply a repeat of the above.
Comments