Mike Ness - Charmed Life Chords & Tabs

 

Charmed Life Chords & Tabs

Mike Ness Chords & Tabs

Version: 1 Type: Tab 0 ratings
1 star 2 stars 3 stars 4 stars 5 stars
comments

Charmed Life Tab

Intro : x2
| ------------------------------------- |
| ------------------------------------- |
| ------------------------------------- |
| -----10-------6----8-8---88888888---- |
| ---10--10---6---6--8-8---88888888---- |
| --8--------4-------6-6---66666666---- |
[ Tab from: http://www.guitartabs.cc/tabs/m/mike_ness/charmed_life_tab.html ]
Verse : x4 slightly palm muted
| ------------------------------------------ |
| ------------------------------------------ |
| ------------------------------------------ |
| --10-10-10-10--6-6-6-6--8-8---88888888---- |
| --10-10-10-10--6-6-6-6--8-8---88888888---- |
| --8--8--8--8---4-4-4-4--6-6---66666666---- |

Verse

Chorus : x4
| -------------- |
| -------------- |
| -------------- |
| --10--6--8---- |
| --10--6--8---- |
| --8---4--6---- |

Verse 
Chorus

Interlude : x4
| --------------- | ------------ |
| --------------- | ------------ |
| --9-----10----- | ------------ |
| --9--7--10--5-- | --10--6--8-- |
| --7--8--8---5-- | --10--6--8-- |
| -----6------3-- | --8---4--6-- |
Comments