Mike Manring - When We Last Spoke Chords & Tabs

 

When We Last Spoke Chords & Tabs

Mike Manring Chords & Tabs

Version: 1 Type: Bass Tab 0 ratings
1 star 2 stars 3 stars 4 stars 5 stars
comments

When We Last Spoke Bass Tab

   
                       When Last We Spoke
                        ==================
                                                Mike Manring
                                                (Drastic Measures)

Verse #1(0:34)
|------19-----------17-|-15--------|------19-----------17-|-15---------|
|---17-----------17----|-----------|---17-----------17----|------------|
|---------18-----------|-----------|---------18-----------|------------|
|----------------------|-----------|----------------------|------------|

                                                           ^   v  ^
|-------------------------|-------------16-|-20--18--16----------------|
|-------20--18----17------|---------17-----|-------------(19)-20-19-20-|
|---18----------------20--|-18-------------|---------------------------|
|-------------------------|----------------|---------------------------|

|--------------|-----------------17-|-15---------|-------19---------17-|
|--------15-17-|--------------17----|------------|----17----18---17----|
|--------------|-18-15-15-----------|------------|---------------------|
|--------------|--------------------|------------|---------------------|

|-15---------17-20-|-22--20--19-(20-19)-17--|--------------------------|
|------------------|------------------------|--20--18--16-(18-16)--15--|
|------------------|------------------------|--------------------------|
|------------------|------------------------|--------------------------|

|-15--------|-----------|-----17--15--------|--------------------------|
|-----------|-----------|-13----------------|-17--13--15--------17-19--|
|-----------|-----------|-------------------|--------------------------|
|-----------|-----------|-------------------|--------------------------|

             ,
|-20--19--17--15--|-12--------|-12--13--12-13-12-10-------|----10------|
|-----------------|-----------|------------------------13-|-9----------|
|-----------------|-----------|---------------------------|------------|
|-----------------|-----------|---------------------------|------------|

(1:31)
|------19-----------17-|-15--------|------19-----------17-|-20---17-20-|
|---17-----------17----|-----------|---17-----------17----|------------|
|---------18-----------|-----------|---------18-----------|------------|
|----------------------|-----------|----------------------|------------|

|-22--20--19-(20-19)-17--|--------------------------|-15---------12----|
|------------------------|--20--18--17-(18-17)--15--|---------------15-|
|------------------------|--------------------------|------------------|
|------------------------|--------------------------|------------------|

|--------------15--|-18----------15--|-20-----------------------------||
|-13-------17------|----------18-----|--------------------------------||
|------------------|-----------------|--------------------------------||
|------------------|-----------------|--------------------------------||

Chorus(2:00)
|--------------|------------|-------------|--------------|
|o-------------|------------|-------------|--------------|
|o--5----------|--3---------|--5----------|--3-----------|
|--------3-----|------1-----|-------3-----|-------4------|

|--------------|------------|-------------|-------------||
|o-------------|------------|-------------|------------o||
|o--5----------|--3---1-----|-------------|--1----1----o||
|--------3-----|------------|--4----1-----|-------------||

Verse #2(2:45)
|-----15--17---------15---------|-------------------------------------|
|-17--------------17----15-13---|-------13--15---------13-------------|
|-------------------------------|----15-------------15----------------|
|-------------------------------|--------------------------13--11-----|

|-------------10-13-17------19--|-20--19--17--15----|-13--15--16--18--|
|-------10-13-------------------|-------------------|-----------------|
|-------------------------------|-------------------|-----------------|
|-11-13-------------------------|-------------------|-----------------|

                       ^
|-13--15--16--16--15-13-(15)---|-13-15---------------|----19----------|
|------------------------------|--------13-15----13--|-17-------------|
|------------------------------|--------------15-----|-------18-18-15-|
|------------------------------|---------------------|----------------|

|----------------15--------|-------------------|---------------15-----|
|-------------15----15-----|----13-16----------|-15-18-15---17----17--|
|-------15-18--------------|-15----------15-18-|----------------------|
|-15-18--------------------|-------------------|----------------------|

|-------|----------15-17-18-16-15-16-20-|-----18-18-18-16-16-15-------|
|-------|-------18----------------------|-----------------------------|
|-------|----18-------------------------|-----------------------------|
|-16-18-|-19----------------------------|-----------------------------|

|-13-13-15-11-10------|---15-17-17-12----|----------------------------|
|---------------11-13-|---------------13-|----------------------------|
|---------------------|------------------|-15-17-18-15-17----15-17-18-|
|---------------------|------------------|----------------18----------|
[ Tab from: http://www.guitartabs.cc/tabs/m/mike_manring/when_we_last_spoke_btab.html ]
|-------------------15-17-15----|-------17-19-20-|-22--20--19--17--20-|
|----------15-17-18----------15-|-13-------------|--------------------|
|-15-17-15----------------------|----------------|--------------------|
|-------------------------------|----------------|--------------------|

|--------------------|---------------17-|-15-----|-----19----------17-|
|-15---17------------|-10--13-10--------|--------|-17----------17-----|
|----------13--10-13-|------------------|--------|---------16---------|
|--------------------|------------------|--------|--------------------|


|--20------17--20-|--22--20--19-(20-19)-17--|-------------------------|
|-----------------|-------------------------|--20--18--17-(18-17)-15--|
|-----------------|-------------------------|-------------------------|
|-----------------|-------------------------|-------------------------|

|--15----12--15--|-----------15-|-18---------15-|--20----------------||
|----------------|-13-----17----|---------18----|--------------------||
|----------------|--------------|---------------|--------------------||
|----------------|--------------|---------------|--------------------||

Chorus - No Repeat (4:20)

Outro Theme (4:40)
|----7-|-8--7--5------------|------------------7-|-8--7--5------------|
|--8---|o---------8---------|--5--6--8-------8---|----------8-------5-|
|------|o--------------6--8-|-----------6--------|--------------6-8---|
|------|--------------------|--------------------|--------------------|

|---------------------7-|-8--10-7-------------|-----------------------|
|-6--8-6--5--------8----|----------8----------|-5--6--8---------------|
|------------6----------|----------------6--8-|----------6------------|
|-----------------------|---------------------|-----------------8--6--|

                               ______________________
                              1                      |
|---------------------------|---------------------7--|
|----5--6--5----------------|-5---6---5---------8---o|
|-8--------------8--6---8---|-------------8---------o|
|---------------------------|------------------------|


 ________________
 2                                   Outro Solo (5:30)
|------------------------12-13-15-17-|-15--------12-|-13-13-12--------|
|-(5)-----------12-13-15-------------|--------15----|----------13-----|
|------11-13-15----------------------|--------------|-----------------|
|------------------------------------|--------------|-----------------|

|---17-17-15------|-------------------|----------------------------15-|
|--------------12-|13-13-12-12-10-----|--------------------15-17-18---|
|-----------------|--------------13---|--------15--15-17-18-----------|
|-----------------|----------------11-|15-16-18--18-------------------|

|-20--19--17--15-------------|------------------------|---------------|
|---------------------15--17-|-18--17--15------15--17-|-18--17--------|
|----------------------------|-------------18---------|---------18----|
|----------------------------|------------------------|------------18-|

|-----15-15-15-15-15-15-15-|-15------------------------------|
|--------------------------|-----18--17---------------15--17-|
|--------------------------|-------------18-------17---------|
|--------------------------|---------------------------------|

|-15----15-15-15-15--------------------|------10---------------------|
|--------------------18-17-15-15-------|--13------12-----------------|
|--------------------------------18----|-------------13--------------|
|--------------------------------------|-----------------------11-13-|

|-------------------------|----------------|------------------------||
|-------------------------|----------------|------------------------||
|-10--11--13---11------10-|----------------|------------------------||
|-------------------------|------------11--|------------------------||

I transcribed this track because I think it puts to rest all claims  
that 
Manring is purly a techician. The playng on this track is some of  
the most 
lyrical work I've heard on any instrument. There are very few  
techically 
difficult parts, but the note choice is inspired, and some of the  
intervals 
truly educational.

I think of this track as a Jaco tribute (c.f. "A remark you made").  
I'd be 
interested if anyone could confirm or drefuteny this interpretation.

Notes

1)      The first verse is pretty easy. The main thing that  
requires comment
is the slide at the end of the 7th bar. As I've been playing this  
on fretted
I've notated it as a ghost bend - fret 19, and bend it to 20 before  
sounding
the note, then drop it down and back again. Note that in the  
decending phrase
(13-14 and 27-28) the trill on the D string is different the second  
time.

2)      The chorus is trivial, but illustrates some interesting  
inversions.

3)      The second verse is by far the hardest section. Appologies  
for the 
poor notation of phrasing here - carefull analysis of the album is  
a must. 

4)      The outro section is straight forwards. The bass shifts to  
the solo 
after the second time through the theme. Again phrasing is  
critical. The 
only dificult phrase is the run in the 5th bar (any corrections to  
this would 
be appreciated). The second half of the outro is notated 1 octave  
down, to 
fit on a standard bass.


Hope you enjoy this transcription...

Ian
ian@ohm.york.ac.uk


		


Comments