Mika - Lola Chords & Tabs

 

Lola Chords & Tabs

Mika Chords & Tabs

Version: 1 Type: Bass Tab 0 ratings
1 star 2 stars 3 stars 4 stars 5 stars
comments

Lola Bass Tab

This is my first posted tab so all corrections and remarks are highly welcome.

Main riff (it starts about 0:08 and goes throughout the verse and chorus)

G|------------------------------------|
D|----------------------4h6-6-4-4p22--|   
A|-2h4-4-2---2h3h44-2----------------2|
E|------------------------------------|

Then from 0:58 till 1:13 you should rest.

Main riff again from 1:14 - till 1:53
[ Tab from: http://www.guitartabs.cc/tabs/m/mika/lola_btab.html ]
Bridge (Haaa Ha-aa Like a fish out of water...) from 1:54 till 2:18
G|---------------2h3h4----------------|
D|-2-2-22-2-2-22-------6-6-66-6-6-66-4|   
A|------------------------------------|
E|------------------------------------|

G|------------------------------------|
D|--------------------6-6-66-6-6-66-4-|   
A|--6-6-66-6-6-66-4-------------------|
E|------------------------------------|

G|------------------------------2h3h4-|
D|-----------------2-2-22-2-2-22------| 
A|-6-6-66-6-6-66-4--------------------|   
E|------------------------------------|

Main riff from 2:19 till the end (when it fades out).
Enjoy!
Comments