Miguel Y Miguel - El Sinaloense Chords & Tabs

 

El Sinaloense Chords & Tabs

Miguel Y Miguel Chords & Tabs

Version: 1 Type: Tab 0 ratings
1 star 2 stars 3 stars 4 stars 5 stars
comments

El Sinaloense Tab

   
Tabbed by:Fernie Soto
Email:fernie_s@yahoo.com
Tuning: Standard (EADGBe)


REQUINTO INTRO:

e|----5--5-5-5-5---4-4-2--0-2-4-5--4-2-0-2-4-4--|
B|--7----7-7-7-7---5-5-3--2-3-5-7--5-3-2-3-5-5--|
G|----------------------------------------------|
D|----------------------------------------------|
A|----------------------------------------------|
E|----------------------------------------------|

e|--4---7-7-7--5-7-5--4-4-4--2-4-2--0-0-0----0--------|
B|--5---9-9-9--7-9-7--5-5-5--3-5-3--2-2-2--3-2-3--2-2-|
G|-----------------------------------------4---4--2-2-|
D|----------------------------------------------------|
A|----------------------------------------------------|
E|----------------------------------------------------|

e|-----0--5-----0--5-----0--4-4--|
B|--2--------2--------2-----5-5--|
G|-------------------------------|
D|-------------------------------|
A|-------------------------------|
E|-------------------------------|

e|-----0--4--5--4--2-----0--|
B|--2-----------------5--2--|
G|--------------------------|
D|--------------------------|
A|--------------------------|
E|--------------------------|

e|-----0--5-----0--5-----0--4-4--|
B|--2--------2--------2-----5-5--|
G|-------------------------------|
D|-------------------------------|
A|-------------------------------|
E|-------------------------------|

e|-----0--4--5--4--2-----0------------------|
B|--2-----------------5--2------------------|
G|------------------------------------------|
D|---------------------------4--2--0--------|
A|------------------------------------4--O--|
E|------------------------------------------|

e|-----------------------------------------------------------------|
B|-----------------------------------------------------------------|
G|-----------------------------------------------------------------|
D|-----0--2--4---------0--2--4---------0--2--4---------0--2--4-----|
A|--4-----------0---4-----------0---4-----------0---4-----------0--|
E|-----------------------------------------------------------------|


 A                                          E7
Desde Navolato vengo, dicen que naci en el roble

Me dicen que soy arriero, por que le chiflo y se para
                     D         E7          A
y les abiento el sombrero ya veran como repara.

    E7               (BAJEO 1)    <-------------------| (Así lo señalaré)
Ay, Ay, Ay...  e|-------------------------------------|
               B|-------------------------------------|
               G|-------------------------------------|
               D|--0-0-0-2-2-2-4-4-4--------0--1------|
               A|---------------------2--4------------|
               E|---------------------------------0---|

              A
Ay mamá por Dios.


 A                        E7
Por Dios que borracho vengo, que me siga la tambora

que me toquen el quelite, despues el niño perdido
                  D              E7           A
y por último el torito pa´ que vean como me pingo

    E7         (BAJEO 1)
Ay, Ay, Ay...
            A
Ay mamá por Dios.


REQUINTO MEDIO:

e|---5-5-5-5---4-4-2--0-2-4-5--4-2-0-2-4-4----|
B|---7-7-7-7---5-5-3--2-3-5-7--5-3-2-3-5-5----|
G|--------------------------------------------|
D|--------------------------------------------|
A|--------------------------------------------|
E|--------------------------------------------|
[ Tab from: http://www.guitartabs.cc/tabs/m/miguel_y_miguel/el_sinaloense_tab.html ]
e|--4---7-7-7--5-7-5--4-4-4--2-4-2--0-0-0----0--------|
B|--5---9-9-9--7-9-7--5-5-5--3-5-3--2-2-2--3-2-3--2-2-|
G|-----------------------------------------4---4--2-2-|
D|----------------------------------------------------|
A|----------------------------------------------------|
E|----------------------------------------------------|

e|-----0--5-----0--5-----0--4-4--|
B|--2--------2--------2-----5-5--|
G|-------------------------------|
D|-------------------------------|
A|-------------------------------|
E|-------------------------------|

e|-----0--4--5--4--2-----0--|
B|--2-----------------5--2--|
G|--------------------------|
D|--------------------------|
A|--------------------------|
E|--------------------------|

e|-----0--5-----0--5-----0--4-4--|
B|--2--------2--------2-----5-5--|
G|-------------------------------|
D|-------------------------------|
A|-------------------------------|
E|-------------------------------|

e|-----0--4--5--4--2-----0---------------------|
B|--2-----------------5--2---------------------|
G|---------------------------------------------|
D|---------------------------4--2--0-----------|
A|------------------------------------4--2--0--|
E|---------------------------------------------|

e|--------------------------------------------------------------|
B|--------------------------------------------------------------|
G|-------------------------------------1--2--1------------------|
D|-----0--2--4--2-------------0--2--4-----------4--2--0---------|
A|--4--------------4--0----4-----------------------------4--0---|
E|--------------------------------------------------------------|


 A                                        E7
Soy del mero sinaloa, donde se rompen las olas

me gusta una que ande sola, y que no tenga marido
                   D            E7          A
pa´no estar comprometido cuando resulte la boda.
        E7    (BAJEO 1)
Ay, Ay, Ay...
             A
Ay mamá por Dios.

A                      E7
Por Dios que borracho vengo, que me siga la tambora

que me toquen el quelite, despues el niño perdido
                   D            E7            A
y por último el torito pa´ que vean como me pingo
        E7    (BAJEO 1)
Ay, Ay, Ay...
            A
Ay mamá por Dios.


REQUINTO MEDIO:

 A                                     E7
Me dicen enamorado, pero de eso nada tengo

todos me dicen el negro, un negro pero con suerte
                         D            E7           A
por que si me salta un gallo no me le rajo a la muerte

       E7               (BAJEO 2)
Ay, Ay, Ay...  e|------------------------------------------------------------|
               B|------------------------------------------------------------|
               G|--------------------1-1-1-----------------------------------|
               D|--0-0-0-2-2-2-4-4-4-------4-4-4-2-2-2-0-0-0--------0--1-----|
               A|---------------------------------------------2--4-----------|
               E|---------------------------------------------------------0--|

             A
Ay mamá por Dios.


A                      E7
Por Dios que borracho vengo, que me siga la tambora

que me toquen el quelite, despues el niño perdido
                   D            E7            A
y por último el torito pa´ que vean como me pingo
        E7       (BAJEO 2)
Ay, Ay, Ay...

     A                            A
Ay, Ay, Ay...  e|----------------5--5----|
               B|----------------5--5----|
               G|----------------6--6----|
               D|-------4---6----7--7----|
               A|---7--------------------|
               E|------------------------|
Comments