Mighty Zep - Friends Chords & Tabs

 

Friends Chords & Tabs

Mighty Zep Chords & Tabs

Version: 1 Type: Tab 0 ratings
1 star 2 stars 3 stars 4 stars 5 stars
comments

Friends Tab

   
#----------------------------------PLEASE NOTE---------------------------------#
#This file is the author's own work and represents their interpretation of the #
#song. You may only use this file for private study, scholarship, or research. #
#------------------------------------------------------------------------------##
From: bobz@crl.com (Robert Zawalski)
Subject: TAB: Friends (mighty Zep)

Tuning is (low to high) C,A,C,G,C,E

I just figured out that tuning while rewatching unledded. Always
wondered how to play dis song..

E:--0-0-0-0-    
C:--0-0-0-0-
G:--0-0-0-0-
C:--4-4-4-4- x2
A:--3-3-3-3-
C:--0-0-0-0-
[ Tab from: http://www.guitartabs.cc/tabs/m/mighty_zep/friends_tab.html ]
E:--0-0-0-0--0-3-0-2-0-0-2-0-2-0-2-
C:--0-0-0-0--0-3-0-2-0-0-2-0-2-0-2-
G:--0-0-0-0--0-3-0-2-0-0-2-0-2-0-2-
C:--4-4-4-4--4-4-4-4-4-4-4-4-4-4-4-
A:--3-3-3-3--3-3-3-3-3-3-3-3-3-3-3- x2
C:--0-0-0-0--0-0-0-0-0-0-0-0-0-0-0-

verse is somethin like:

E:--0-let-it-ring-open-the-whole-time----
C:--0-let-it-ring-open-the-whole-time----
G:--5 / 12--11-12-14 / 16 \ 9 / 11 \ 4-3-
C:--0-let-it-ring-open-the-whole-time----
A:--3 / 10--9--10-12 / 14 \ 7 / 9 \ 4-3--
C:--0-let-it-ring-open-the-whole-time----

Then the part just after Plant sings 'it's very easy just':  (is this..)

E:--mute-it-
C:--mute-it-
G:--5--8--7--10-9--12--11----------------
C:--0-let-it-ring-open-the-whole-time----
A:--3--6--5--8--7--10--9-----------------
C:--0-let-it-ring-open-the-whole-time----

Not much else to this song really..

Hope this serves well enough..

Dustin Zawalski (Page worshipper extreme)

Comments