Mighty Mighty Bosstones - You Gotta Go Chords & Tabs

 

You Gotta Go Chords & Tabs

Mighty Mighty Bosstones Chords & Tabs

Version: 1 Type: Tab 0 ratings
1 star 2 stars 3 stars 4 stars 5 stars
comments

You Gotta Go Tab

   
-------------------------------------------------------------------------------
			     You gotta go - Mighty mighty bosstones
-------------------------------------------------------------------------------

Tabbed by: Zero is great man
Tuning:EADGBE

Intro/Chorus:
e|----------------------------------------------------------------|
B|----------------------------------------------------------------|
G|--------8-10--------8----------8-10--------6-------------4------|
D|-8------8-10-8------8-5-8------8-10-8------6-(x4)-4------4-(x4)-|
A|-8-(x4)-6-8--8-(x4)-6-5-8-(x4)-6-8--8-(x4)-4------4-(x4)-2------|
E|-6-----------6--------3-6-----------6-------------2-------------|
[ Tab from: http://www.guitartabs.cc/tabs/m/mighty_mighty_bosstones/you_gotta_go_tab.html ]
Verse:
e|------------------------------------|
B|---------------3-3----------3-3-----|
G|-----------3-3-----3-3--3-3-----3-3-|
D|-8-------5--------------------------|
A|-8-(x8)--5--------------------------|
E|-6-------3--------------------------|
 |--p.m---|

Verse part 2:
e|-------------------1------|
B|-------------------3-(x4)-|
G|-5-------8------5---------|
D|-5-(x4)--8-(x4)-5---------|
A|-3-------6------3---------|
E|--------------------------|

Pre-chorus:
e|-------------------------|
B|-------------------------|
G|-----8-8-8-8-8-8--10--10-|
D|-8-4-x-x-x-x-x-x--x---x--|
A|-8-4-6-6-6-6-6-6--8---8--|
E|-6-2---------------------|
 |p.m|

Bridge:
e|------------------------------|
B|------------------------------|
G|------------------------------|
D|-6/8-8------------------------|
A|-6/8-8-(x10)-7-4-6-4-7-4------|
E|-4/6-6--------------------4/6-|

| /  slide up
| \  slide down
| h  hammer-on
| p  pull-off
| ~  vibrato
| +  harmonic
| x  Mute note


That's about it, enjoy!
===============================================================================
Comments