Mighty Mighty Bosstones - You Gotta Go Chords & Tabs

 

You Gotta Go Chords & Tabs

Mighty Mighty Bosstones Chords & Tabs

Version: 1 Type: Bass Tab 0 ratings
1 star 2 stars 3 stars 4 stars 5 stars
comments

You Gotta Go Bass Tab

-------------------------------------------------------------------------------
			     You gotta go - mighty mighty boss tones
-------------------------------------------------------------------------------

By:Zero
Standard Tunning(EADG)

Artist:Mighty Mighty Bosstones
Albulm: A jacknife to a swan

Verse
G|---------------------------------------------------------------------------|
D|---------------------------------------------------------------------------|
A|---------------------------------------------------------------------------|
E|-6-6-6-6-6-6-6-6-6-6--3-3-3-3-3-3-3-3-3-3----------------------------------|

Verse (continued)
G|---------------------------------------------------------------------------|
D|---------------------------------------------------------------------------|
A|-3-3-3-3-3-3-3-3-3-3--6-6-6-6-6-6-6-6-6-6----------------------------------|
E|---------------------------------------------------------------------------|

verse part 3
G|---------------------------------------------------------------------------|
D|---------------------------------------------------------------------------|
A|-----------------------------------6-6-6-6--8-8----------------------------|
E|-6-6-6-6-6-6-6-6--4-4-4-4-4-4-4-4------------------------------------------|

Chorus
G|---------------------------------------------------------------------------|
D|---------------------------------------------------------------------------|
A|----------6-6--8-8-----------6-6----------------6-6------------------------|
E|-6-6-6-6------------6-6-6-6-------6-6--6-6-6-6-------4-4-------------------|

[ Tab from: http://www.guitartabs.cc/tabs/m/mighty_mighty_bosstones/you_gotta_go_btab.html ]
G|---------------------------------------------------------------------------|
D|---------------------------------------------------------------------------|
A|----------4-4-4-4------------2-2-2-2---------------------------------------|
E|-6-6-6-6-----------2-2-2-2-------------------------------------------------|

Lyrics

i havent heard a word from you in how long
you just jumped off the face
you disappered without a trace
but i knew that you were out there
or where your were abouts were
or if you were alive
thats why your call to me surprised me
it came out of the blue
you told me when you be arriving
and there was nothing i could do
i just assumed you wouldnt stay long
but i was wrong
its nearly near a year and your still here

you gotta go
its time for you to leave
you worn out your welcome
its time for you to go

i said for a few days you could crash
at my place and i lent
you a substantial chunck of cash
until you found empolyment
a job thats not beneath you
that never happened
i wish i knew
what i now do
i be far away from

you gotta go
its time for you to leave
you worn out your welcome
its time for you to go (somewhere else)

ive haddit, 
i just cant take no more
you need to wake up, 
and get your drunk ass off the floor
you lost my cat and broke my tv
i cant use the couch till well past three
so pack your bags, cause here is the door.

you gotta go
its time for you to leave
you worn out your welcome
its time for you to go 
you gotta go
this is not your address
you dont have my patience
its time for you to go(somewhere else)
you gotta go(somewhere else)
you gotta go 

===============================================================================
Comments