Mighty Mighty Bosstones - Whered You Go Chords & Tabs

 

Whered You Go Chords & Tabs

Mighty Mighty Bosstones Chords & Tabs

Version: 2 Type: Tab

Whered You Go Tab

Band: The Mighty Mighty Bosstones
Song: Where’d you go?
Album: Where’d you go? (E.P)
Standard Tuning
Transcriber: Robert Johnstone

My second tab off this E.P, my first one was “Enter Sandman”, Check it out on this site. 
Rate this
Tab, it’s accurate!

N.B.! In order to play this fist riff just listen to the song for rhythm and timing, 
just go and play it fast or slow
Or whatever else just listen to the song first!

Effects: Clean
E-------------------------------------------------|
B-------------------------------------------------|
G-------------------------------------------------|
D--12-12-12-12-12-s-14-14-14-14-14----------------|
A--10-10-10-10-10-s-12-12-12-12-12----------------|
E-------------------------------------------------|

Checked the clock when I got home…
Effects: clean
E---5-5-5-5-5-5-5-5-5-5-5-5-----3-3-3-3-3-3-3-3-3-3-3-3-----------|
B---5-5-5-5-5-5-5-5-5-5-5-5-----3-3-3-3-3-3-3-3-3-3-3-3-----------|
G---6-6-6-6-6-6-6-6-6-6-6-6-----4-4-4-4-4-4-4-4-4-4-4-4-----------|
D-----------------------------------------------------------------|
A-----------------------------------------------------------------|
E-----------------------------------------------------------------|
[ Tab from: http://www.guitartabs.cc/tabs/m/mighty_mighty_bosstones/whered_you_go_tab_ver_2.html ]
I wanna know…
Effects: Distorted
(repeat this a few times)
E---------------------|
B---------------------|
G---------------------|
D--5-5-5--4-----------|
A--5-5-5--2-----------|
E--3-3-3--------------|
         *
Effects: clean
E---5-5-5-5-5-5-5-5-5-5-5-5-----3-3-3-3-3-3-3-3-3-3-3-3-----------|
B---5-5-5-5-5-5-5-5-5-5-5-5-----3-3-3-3-3-3-3-3-3-3-3-3-----------|
G---6-6-6-6-6-6-6-6-6-6-6-6-----4-4-4-4-4-4-4-4-4-4-4-4-----------|
D-----------------------------------------------------------------|
A-----------------------------------------------------------------|
E-----------------------------------------------------------------|

Effects: Distorted
E---------------------|
B---------------------|
G---------------------|
D--5-5-5--4-----------|
A--5-5-5--2-----------|
E--3-3-3--------------|
         *
Effects: Distorted
E-------------------------------------------------|
B-------------------------------------------------|
G-------------------------------------------------|
D--12-12-12-12-12-s-14-14-14-14-14----------------|
A--10-10-10-10-10-s-12-12-12-12-12----------------|
E-------------------------------------------------|

Effects: Clean
E---5-5-5-5-5-5-5-5-5-5-5-5-----3-3-3-3-3-3-3-3-3-3-3-3-----------|
B---5-5-5-5-5-5-5-5-5-5-5-5-----3-3-3-3-3-3-3-3-3-3-3-3-----------|
G---6-6-6-6-6-6-6-6-6-6-6-6-----4-4-4-4-4-4-4-4-4-4-4-4-----------|
D-----------------------------------------------------------------|
A-----------------------------------------------------------------|
E-----------------------------------------------------------------|

Distorted
E---------------------|
B---------------------|
G---------------------|
D--5-5-5--4-----------|
A--5-5-5--2-----------|
E--3-3-3--------------|
         *

Keys:
*-dead chord/palm mute