Mighty Mighty Bosstones - Whered You Go Chords & Tabs

 

Whered You Go Chords & Tabs

Mighty Mighty Bosstones Chords & Tabs

Version: 1 Type: Tab 0 ratings
1 star 2 stars 3 stars 4 stars 5 stars
comments

Whered You Go Tab

Artist: The Mighty Mighty Bosstones
Song: Where'd You Go
Album: Awfully Quiet
Tabbed By: Ade Percival
E-Mail: internetdatingsuperstud405@hotmail.com

Intro (P.M.)
e|---------------------------|
B|---------------------------|
G|---0000--22----------------|
D|---4457--22----------------|
A|---------00--45555---------|
E|---------------------------|
[ Tab from: http://www.guitartabs.cc/tabs/m/mighty_mighty_bosstones/whered_you_go_tab.html ]
Verse/Chorus
e|-5--4--3--2-----------|
B|-5--5--3--3-----------|
G|-6--6--4--4-----------|
D|-7-----5--------------|
A|----------------------|
E|----------------------|
(Ska strums you can figure out the rhythm and number of strums etc.)

Post Chorus
e|------------------|
B|------------------|
G|-----7------------|
D|--5--7--7---------|
A|--5--5--7---------|
E|--3-----5---------|

Order:
Intro(x4)
Verse(x2)
Chorus(x2)
Post Chourus(x4)
Verse(x2)
Chorus(x2)
Post Chorus(x2)
Intro(x8)
Verse(x2)
Chorus(x2)
Post Chorus(x8)
During the last Post Chorus it starts to fade out after 4 times.

If anyone could tab 'Someday I Suppose' or 'Hope I Never Loose My Wallet' then that
would be great because they are two of my favorite Bosstones songs and I can't figure
them out. Thanks.
                                Ade
Comments