Mighty Mighty Bosstones - Whered You Go Chords & Tabs

 

Whered You Go Chords & Tabs

Mighty Mighty Bosstones Chords & Tabs

Version: 2 Type: Bass Tab 0 ratings
1 star 2 stars 3 stars 4 stars 5 stars
comments

Whered You Go Bass Tab

   
Song: Where'd You Go?
Artist: The Mighty Mighty Bosstones
Album: More Noise and Other Disturbances
Tabbed By: Taylor White
 
Intro:
G ----------------------------------------------------------------------------------------------------------------------------
D ----------------------------------------------------------------------------------------------------------------------------
A ------0--0------------0--0------------0--0------------0--0--12-12-12-12-12-12-12-12-12-12-12\--0-2-4
E ----------------------------------------------------------------------------------------------------------------------------
 
Verse:
G ----------------------------------------------------------------------------------------------------------------------
D -----------------2---------------------------------------------------------2----------------------------------------
A --0--0-2-0--------2---0---2---0------0----0-0-2-4---0--0-2-0--------2---0---2---0------0----0-0-2-4
E --------------0------------------------2----2--------------------------0-------------------------2----2-----------
 
Chorus:
G ------------------------------------------------------------------------------------------------------------------------------
D ------------------------------------------------------------------------------------------------------------------------------
A --7---7-0-4-7---0-4-7\--2---0---2---0-----0-----0-0-2-4----7---7-0-4-7---0-4-7\--2---0---2---0----0----0-
E ------------------------------------------------2----2------------------------------------------------------------ 2----2---
 
After 1st "I wanna know...":
G ---------------------------------------------------------------------------------------------------------
D -----0----------------------0----------------------0----------------------0---------------------------
A ---------0---5--5-4-2--------0---5--5-4-2--------0---5--5-4-2-------0---5-5-4-2-0-0-2-4
E --3----------------------3----------------------3----------------------3------------------------------
 
After 2nd "I wanna know...":
G ------------------------------------------------------------------------------------------------
D -----0----------------------0----------------------0----------------------0-----------------2
A ---------0---5--5-4-2--------0---5--5-4-2--------0---5--5-4-2-------0---5-5-4-2--
E --3----------------------3----------------------3----------------------3---------------------
 
2nd Bridge:
G ----------------------------------------------------------------------------------------
D -----------------------------------------------------------------------------------------
A 0-0-0-0-0-0-0-0-0-0-0-0-0-0-0-0-0-0-0-0-0-0-0-0-0-0-0-0-0-0-0-0-
E -----------------------------------------------------------------------------------------
 
G -------------------------------------------------------------------------------
D -------------------------------------------------------------------------------
A -12-12-12-12-12-12-12-12-12-12-12-12-12-12-12\--0-2-4--
E -------------------------------------------------------------------------------

In other words, play 4 measures of 8th notes with your open (0) A string. Then play 1 measure of 8th
notes with your A string on the 12th fret (12). Finally, play 7 8th notes with your A string on the 12th fret
(12) and on the 7th 8th note, slide down.

 
After Last "I wanna know...":

G -------------------------
D -----0-------------------
A ---------0---5--5-4-2-
E --3----------------------
 
Play this over and over until the entire band stop after the fade out

Order of Song:

Intro
Verse
Chorus
After 1st "I wanna know..."
Verse
Chorus
After 2nd "I wanna know..."
Bridge when Dicky keeps saying "Where did you go?"
2nd Bridge
Verse
Chorus
After Last "I wanna know..."

Well, that's it! I'm pretty sure it's right but if there is a mistake I didn't catch that you wanna tell me, or if
you wanna thank me for finally tabbing this awesome song, e-mail at me SubwayJo@aol.com
[ Tab from: http://www.guitartabs.cc/tabs/m/mighty_mighty_bosstones/whered_you_go_btab_ver_2.html ]
Comments