Mighty Mighty Bosstones - Think Again Chords & Tabs

 

Think Again Chords & Tabs

Mighty Mighty Bosstones Chords & Tabs

Version: 1 Type: Bass Tab 0 ratings
1 star 2 stars 3 stars 4 stars 5 stars
comments

Think Again Bass Tab

Artist: Mighty Mighty Bosstones
Song: Think Again
Album: Ska-Core, The Devil, and More
Tabbed By: Taylor White

 

Verse:

G --2------2----------2--------------2------2----------2--------------2------2----------2----------------2------2----------2------------
D ------4-------2-2-----------------------4-------2-2---------------------4-------2-2------------------------4-------2-2-----------------
A ---------------------------0--2-------------------------------0--2-------------------------------0--2-------------------------------0--2-
E ------------------------------------------------------------------------------------------------------------------------------------------------

 

Prechorus:

G ---------------------------------------------------------------------------
D ----------------------------------------------------------------------------
A -------------7-7---------------7-7---------------7-7---------------7-7-
E --3--3/5-----------3--3/5-----------3--3/5-----------3--3/5---------

 

Chorus:

G ----------------------------------------------------------------
D --3--3-2----3--3-2---3--3-2-3-2-3/5-5-5-5-5-5-5-5-
A -----------------------------------------------------------------
E -----------------------------------------------------------------

 

Extended Verse:

G --2------2----------2--------------2------2----------2--------------2------2----------2----------------2------2----------2------------
D ------4-------2-2-----------------------4-------2-2---------------------4-------2-2------------------------4-------2-2-----------------
A ---------------------------0--2-------------------------------0--2-------------------------------0--2-------------------------------0--2-
E -----------------------------------------------------------------------------------------------------------------------------------------------

 

G --2------2----------2--------------2------2----------2-----------
D ------4-------2-2-----------------------4-------2-2--------------
A ---------------------------0--2-------------------------------0--2-
E ----------------------------------------------------------------------

 

Interlude:

G --2------2----------2--------------2------2----------2--------------2------2----------2----------------2------2----------2------------
D ------4-------2-2-----------------------4-------2-2---------------------4-------2-2------------------------4-------2-2-----------------
A ---------------------------0--2-------------------------------0--2-------------------------------0--2-------------------------------0--2-
E ------------------------------------------------------------------------------------------------------------------------------------------------

 

G --2------2----------2--------------2------2----------2--------------2------2----------2----------------2------2----------2------------
D ------4-------2-2-----------------------4-------2-2---------------------4-------2-2------------------------4-------2-2-----------------
A ---------------------------0--2-------------------------------0--2-------------------------------0--2-------------------------------0--2-
E -----------------------------------------------------------------------------------------------------------------------------------------------

 

Shorten Verse:
[ Tab from: http://www.guitartabs.cc/tabs/m/mighty_mighty_bosstones/think_again_btab.html ]
G --2------2----------2--------------2------2----------2-----------
D ------4-------2-2-----------------------4-------2-2--------------
A ---------------------------0--2-------------------------------0--2-
E ----------------------------------------------------------------------

 

Extended Prechorus

G ----------------------------------------------------------------------------------------------------------------------------------------------------------
D -----------------------------------------------------------------------------------------7-7---------------7-7---------------7-7---------------7-7--
A -------------7-7---------------7-7---------------7-7---------------7-7---3--3/5-----------3--3/5-----------3--3/5-----------3--3/5---------
E --3--3/5-----------3--3/5-----------3--3/5-----------3--3/5---------------------------------------------------------------------------------------

 

Final Chorus:

G -------------------------------------------------------------------
D --3--3-2----3--3-2---3--3-2-3-2-3/5-5-5-5-5-5-5-5/7\
A -------------------------------------------------------------------
E -------------------------------------------------------------------

 

Order of Song:
Guitar Intro (No Bass)
Verse
Prechorus
Chorus
Extended Verse
Prechorus
Chorus
Interlude
Shorten Verse
Prechorus
Chorus
Extended Prechorus
Final Chorus

Well, that's it! If there is a mistake I didn't catch that you wanna tell me, or if you wanna thank me for
finally tabbing this song, e-mail me at SubwayJo@aol.com



{{{{{{{{{{{{{{{{{{{{{{{{{}}}}}}}}}}}}}}}}}}}}}}}}
VERSION 2
}}}}}}}}}}}}}}}}}}}}}}}}}{{{{{{{{{{{{{{{{{{{{{{{{


Song:  think again
Band: minor threat(bosstones cover)
Album:?????(ska core the devil and more)
tabbed by: Johnny flash
I'd just like to say- this is one of my favorite songs by the Bosstones I've never really heard the minor threat version but I decided to tab this out so any one who likes this can get a rough idea of how its done. also this may not be right but it pretty close

Starts with guitar then is joined by bass(well you should know the song!)
	Repeat 4 times
G:------------------------------|---------------------------------
D:------------------------------|---------------------------------
A:--1---------------------------|----1------------------------------
E:-------2----4-----2---2------|--------0-----1-----------------------

		Then 3 times
G:---------------------------------------------------------------
D:---------------------------------------------------------------
A:---------------------------------------------------------------
E:----4--4--6---------4---4----6--------------------------------
Can be played 4 than 1 one the a string
		then
G:---------------------------------------------------------------
D:---------------------------------------------------------------
A:----1------0------------1----------0---------------------------
E:---------------------------------------------------------------

	Then when the saxes and bone play:
G:---------------------------------------------------------------
D:---------------------------------------------------------------
A:----1-----------------------------1------------------------------
E:-----------1------3---1---1------------1-----3------1----1---

   Also try it like this it may sound better to you
G:-------------------------------|--------------------------------
D:--------------------------------|-------------------------------
A:---1---------------------------|-1--------------------------------
E:-------1------4-----1---1-----|------1----2---------------------------


Comments