Mighty Mighty Bosstones - The Impression That I Get Chords & Tabs

 

The Impression That I Get Chords & Tabs

Mighty Mighty Bosstones Chords & Tabs

Version: 2 Type: Tab 0 ratings
1 star 2 stars 3 stars 4 stars 5 stars
comments

The Impression That I Get Tab

INTRO (use ska upstroke): 

e-4-4-x-7-7-x-4-4-x-4-4-x-5-5-x-4-4-x-4-4-x-7-7--| 
b-5-5-x-7-7-x-5-5-x-4-4-x-5-5-x-5-5-x-5-5-x-7-7--| 2x 
g-4-4-x-8-8-x-6-6-x-4-4-x-6-6-x-6-6-x-6-6-x-8-8--| 
d------------------------------------------------|
a------------------------------------------------|
e------------------------------------------------|
  
VERSE: 
[ Tab from: http://www.guitartabs.cc/tabs/m/mighty_mighty_bosstones/the_impression_that_i_get_tab_ver_2.html ]
e-x--4--4--x--7--7--x--4--4--x--5--5-| 
b-x--5--5--x--7--7--x--5--5--x--5--5-| 8x 
g-x--4--4--x--8--8--x--6--6--x--6--6-| 
d------------------------------------|
a------------------------------------|
e------------------------------------|
  
PRE-CHORUS: 
e----------------------|
b----------------------|
g-------------2--2--2--|  2x 
d--4--4--4-4--2--2--2--|
a--4--4--4-4--0--0--0--| 
E--2--2--2-0-----------| 
  
CHORUS: 
e----------------------------------|
b----------------------------------|
g-9-9-9-9---------6-6-6-6----------| 
d-9-9-9-9-9-9-9-9-6-6-6-6-7-7-7-7--| 2x 
a-7-7-7-7-9-9-9-9-4-4-4-4-7-7-7-7--| 
E---------7-7-7-7-4-4-4-4-5-5-5-5--| 
  
***PLAY VERSE 4x*** 
  
SECOND VERSE: 
b------------7-|-----5-------5-| 
g-----9--------|-6-------6-----| 
d---9------9---|---6-------7---| 4x (w/ some variations) 
a-7------9-----|---------------| 
E--------------|---------------| 
P.M._________________________ 
  
***PLAY PRE-CHORUS 2x*** 
  
***PLAY CHORUS 2x*** 
  
***PLAY PRE-CHORUS 3x*** 
  
***PLAY INTRO 2x*** 
  
***PLAY CHORUS 2x*** 
  
***PLAY VERSE 4x*** 
  
***PLAY SECOND VERSE 4x*** 
  
then guitar is out for alittle bit 
  
OUTRO (whole outro is palm-muted): 
e----------------|-----------------|---------------| 
b------10p9------|--------12p9-----|---------------| 
g-9-9-------11-9-|---9-9-------9-9-|-9-9--11-9---9-| 
d----------------|-9---------------|-----------9---| 
a----------------|-----------------|---------------| 
E----------------|-----------------|---------------| 
P.M.__________________.... 
  
OUTRO (continued) 
e---------------------|------------------|--------| 
b--------------9------|----------10-9----|--------| 
g-9-9-9-9--------11-9-|-9-9-9--9------11-|------9-| 
d----------9-9--------|------------------|-9h11---| 
a---------------------|------------------|--------| 
E---------------------|------------------|--------| 
P.M.________________...
Comments